Red Hot Chili Peppers
Californication Solo Ver 2 (Guitar tab)

SOLO
(light disto tone)

e-|------9-------------------------9--------------------------------------------|

B-|-10---------7/9--7--7--7-7--10---------7/9--7-------7-7-7-7h5--------------5-|

G-|-------------------------------------------------------------6-6---4-6-------|

D-|-----------------------------------------------------------------------------|

A-|-----------------------------------------------------------------------------|

E-|-----------------------------------------------------------------------------|


e-|------------------------------9----12----14------------9-----12--/16--14-----|

B-|-7/9--7--5--------------10------------------------10-------------------------|

G-|-------------6---------------------------------------------------------------|

D-|-----------------------------------------------------------------------------|

A-|-----------------------------------------------------------------------------|

E-|-----------------------------------------------------------------------------|


e-|-17--16--14--12--14--12-----12--------------------------------12-------------|

B-|------------------------14-----14----12/14----12/14----12/14---------14------|

G-|-----------------------------------------------------------------------------|

D-|-----------------------------------------------------------------------------|

A-|-----------------------------------------------------------------------------|

E-|-----------------------------------------------------------------------------|


e-|-16-14-------12------------------12---------------------|
B-|---------14-------14---12--------------15---14----------|
G-|----------------------------14--------------------14----|
D-|-------------------------------------------------/------|
A-|------------------------------------------------/-------|
E-|-----------------------------------------------/--------|
On this note begin to replay the intro part _/

Copyrights
Author: ?
Composer: ?
Publisher: ?
More details
Language: English

Reactions

CommonCrawl [Bot]

Follow Muzikum