Red Hot Chili Peppers
Zephyr Song Ver 2 (Guitar tab)

song:zephyr song
artist:red hot chili peppers
album:by the way
tabbed by Chuck wise
chuckchunder11@hotmail.com

INTRO
e-------3--------------------------------------
B----1------------6----------0----------1------
G-2------------4----------0----------2---------
D-----------5----------2----------3------------
A----------------------------------------------
E----------------------------------------------

e-------3-------------------------------0------
B----1------------3----------0----------1------
G-2------------4----------0----------2---------
D-----------5----------2----------3------------
A----------------------------------------------
E----------------------------------------------

VERSE
e-------0-----3--1--0------------------------------------------------
B----1-----1-------------------3---6--5--3-------------0-----3--1--0-
G-2-------------------------4---------------4-------0-----0----------
D------------------------5-----------------------2-------------------
A--------------------------------------------------------------------
E--------------------------------------------------------------------

e----------------------------
B-------1--------------------
G----2-----2---3/5--3--1-1---
D-3--------------------------
A----------------------------
E----------------------------

e-------0-----3--1--0------------------------------------------------
B----1-----1-------------------3---6--5--3-------------0-----3--1--0-
G-2-------------------------4----------------------0-----0----------
D------------------------5-----------------------2-------------------
A--------------------------------------------------------------------
E--------------------------------------------------------------------

e----------------------------
B-------1---------1----------
G----2---------2-------------
D-3---------3----------------
A----------------------------
E----------------------------

CHORUS
just play D D G A

BIT AFTER CHORUS

e-------3p0--0---------------------------------------------------------------------
B----1---------1-----------3-5p3-3---------------0-3p0-0---------------1-3p1-1-----
G-2---------------------4-----------4----------0----------0----------2---------2---
D--------------------5-----------------------2---------------------3---------------
A----------------------------------------------------------------------------------
E----------------------------------------------------------------------------------


SOLO
e---12-10-12-12--12-10-12----------------------10-8-10-10--10-10-12------------------
B---------------------------12^--10------------------------------------12^-10-------
G------------------------------------------------------------------------------------
D------------------------------------------------------------------------------------
A------------------------------------------------------------------------------------
E------------------------------------------------------------------------------------

e---12-10-12-12--10-12----------------------10-8-10-10-10-8-10-----------------------
B---------------------------12^--------10-----------------------------12^-13-12-10---
G------------------------------------------------------------------------------------
D------------------------------------------------------------------------------------
A------------------------------------------------------------------------------------
E------------------------------------------------------------------------------------

BIT AFTER SOLO
just play
e-----------------1--
B--1----3----1----3--
G--2----4----2----2-- no strumming pattern shown
D--2----5----2-------
A--------------------
E--------------------

OUTRO
e-------------------------------------17--15--17--17-------------------
B-19--17--19--19-----19--17--19--19---------------------17--15--17--17-
G---------------------------------------------------------------------- X2
D----------------------------------------------------------------------
A----------------------------------------------------------------------
E----------------------------------------------------------------------

e-------------------------------------17--15--17--17-------------------
B-19--17--19--19/20--19--17--19--19---------------------17--15--17--17-
G---------------------------------------------------------------------- X2
D----------------------------------------------------------------------
A----------------------------------------------------------------------
E----------------------------------------------------------------------

end note
e--17--17-----
B--15---------


EASY
ENJOY yourmother goes hard

Copyrights
Author: ?
Composer: ?
Publisher: ?
More details
Language: English

Reactions

CommonCrawl [Bot]

Follow Muzikum