Red Hot Chili Peppers

Red Hot Chili Peppers
Subterranean Homesick Blues (Guitar tab)

Author/Artist: Red hot Chili Peppers
Title: Subterranian Homesick Blues
Album: The Uplift Mofo Party Plan
Transcribed by: Chris Valente
Email: RedHotMetallica@aol.com

Live this song is played with OD the whole time.

Verse

--15-x--------------------15--------------------------------------------------
--15-x--13-x13-13-13/14---15---13/14-14-14---12-------------------------------
-----x--12-x12-12-12/14--------12/14-14-14---12-------------------------------
-----x------------------12--14------------------------------------------------
------------------------------------------------------------------------------
------------------------------------------------------------------------------

Chorus

---------15--1515----15--1515-------------------------------------------------
---------13--1313----13--1313-------------------------------------------------
--2--2------------------------------------------------------------------------
--2--2------------------------------------------------------------------------
--0--0------------------------------------------------------------------------
------------------------------------------------------------------------------

Pre-Bass Solo

------------------------------------------------------------------------------
--16--16---16--1616----16--1616-----------------------------------------------
--15--15---15--1515----15--1515-----------------------------------------------
--14--14---14--1414----14--1414-----------------------------------------------
--15--15---15--1515----15--1515-----------------------------------------------
------------------------------------------------------------------------------

Bridge

------------------------------------------------------------------------------
------------------------------------------------------------------------------
--9----7----5----4--5-7-------------------------------------------------------
--9----7----5----4--5-7-------------------------------------------------------
--7----5----3----2--3-5-------------------------------------------------------

OptimusPrime

Submitted by OptimusPrime at Sun 01 Dec, 2002 2:51 pm

Author: ?
Composer: ?
Publisher: ?
Language: English

Reactions

CommonCrawl [Bot]

Follow Muzikum