Red Hot Chili Peppers

Red Hot Chili Peppers
Someone (Guitar tab)

Author/Artist: Red Hot Chili Peppers
Title: Someone
Album: The Zephyr Song Single
Transcribed by: Chris Valente
Email: RedHotMetallica@aol.com

Wow - this is a good song. Should have been on the album.
There's slight echo and reverb throughout the whole song. Key of C Major.

Intro/Verse

--------------------------------------------------------------------------
----17---13---13-13-13------13--12----------------------------------------
----17---14---14-14-14------14--12-14--12-12------------------------------
----17---14---14-14-14------15--------------------------------------------
-15------12---12-12-12------15--------------------------------------------
-------------------------13-----------------------------------------------

Chorus

-------------|-------------------------|----------------------------------
-------------|-------------------------|-13-13-13---15-15-15--------------
-------------|-------------------------|-14-14-14---16-16-16--------------
-------------|-------12/14-12----------|-15-15-15---17-17-17--------------
-15-14----12-|----------------15-14----|-15-15-15---17-17-17--------------
-------15----|-13-13----------------15-|-13-13-13---15-15-15--------------
First couple times Last time play this instead
Bridge

------------|-------------------|-----------------------------------------
------------|15b17r-15----------|-----------------------------------------
-17-16----14|------------17-16--|-16--14----------------------------------
-------17---|-------------------|---------17-17---------------------------
------------|-------------------|-----------------------------------------
------------|-------------------|-----------------------------------------
1st Endings Last Ending
Outro

-----------------------------------------|--------------------------------
-----------------------------------------|--------------------------------
------17----------------12---------------|-17--------------16v------------
---14-17----------------15--12-----------|-17-----------------------------
-15---15--10/12------15--------15-14-14--|-15-----------------------------
------------------13---------------------|--------------------------------

OptimusPrime

Submitted by OptimusPrime at Sun 01 Dec, 2002 2:51 pm

Author: ?
Composer: ?
Publisher: Warner Bros Records
Published in: 2002
Language: English

Reactions

CommonCrawl [Bot]

Follow Muzikum