Red Hot Chili Peppers
Pretty Little Ditty (Guitar tab)

Pretty Little Ditty
Red Hot Chili Peppers
Mother's Milk (1989)
Tabbed by Matt Nicholas
nevermoreh@hotmail.com

Intro

E:---------------------
b:-6---6-x-5--5-5-x-x--
g:-7---7-x-5--5-5-x-x-- X4 each time use slight variations
d:-7---7-x-5--5-5-x-x--
a:-5---5-x-3--3-3-x-x--
e:---------------------

E:------------ ---------- E:-8h10p8-------
b:--5--6-8--5- 5--6^--5-- b:-8-------9h10-
g:--5--7-9--5- X1 5--7^--5-- X2 g:--------------
d:--5--7-9--5- 5--7^--5-- d:--------------
a:--3--5-7--3- 3--5^--3-- a:--------------
e:------------ ---------- e:--------------

Intro X4

Solo

E:-----------------------------------------------------------15---------------------------
b:-----13----15h17-------------------------------13--15/17------15------------------------
g:-14----14---------14---12---14------------14----------------------14---12---14----------
d:---------------------------------12----------------------------------------------12-----
a:--------------------------------------15----------------------------------------------15
e:----------------------------------------------------------------------------------------

Outro

E:-5-7p5----7p5-------8--10p8-----10p8--------
b:-5-5----------7p5---8--8-------------10p8---
g:-6-6----------------9--9--------------------
d:-7-7----7-----------10-10----10-------------
a:--------------------------------------------
e:--------------------------------------------

E:-10-12p10-----12p10---------10-12p10-----12p10----------
b:-10-10--------------12p10---10-10---------------12p10---
g:-11-11----------------------11-11----------------------- X4
d:-12-12----12----------------12-12----12-----------------
a:--------------------------------------------------------
e:--------------------------------------------------------

E:---5--
b:---5--
End on g:---6--
d:---7--
a:------

Copyrights
Author: ?
Composer: ?
Publisher: ?
More details
Language: English

Reactions

CommonCrawl [Bot]

Follow Muzikum