Red Hot Chili Peppers
Midnight (Guitar tab)

Author/Artist: Red Hot Chili Peppers
Title: Midnight
Album: By the Way
Transcribed by: Chris Valente
Email: RedHotMetallica@aol.com

Capo 2nd Fret. Tablature irrelavent to capo. Timing is partially shown in tab.
There are actually two guitars in this song, so this may sound a little dry.
Have Fun!

---------------2-2-2-2-----------|--------------------------------------------
--2-2-2-2-2-2--2-3-2-3-2h3p2-----|--------------------------------------------
--2-2-2-2-2-2--4-4-4-4-------4p0-|--------------------------------------------
--4-2-4-2-4-2--4-4-4-4-----------|-4h6-7-4------------------------------------
--4-4-4-4-4-4--2-2-2-2-----------|--------------------------------------------
--2-2-2-2-2-2--------------------|--------------------------------------------
Verse pt. 1 Fill 1 Fill 2

--2-2-5p2--5-5-5--------------------------------------------------------------
--3-2-3----7-7-7--------------------------------------------------------------
--4-4-4----7-7-7--------------------------------------------------------------
--4-4-4----7-7-7--------------------------------------------------------------
--2-2-2----5-5-5--------------------------------------------------------------
------------------------------------------------------------------------------
Verse prt. 2

---5--2--3--5----5--2--3------------------------------------------------------
---5--4--5--5----5--4--5------------------------------------------------------
---6--4--5--6----6--4--5------------------------------------------------------
---7--4--5--7----7--4--5------------------------------------------------------
---7--2--3--7----7--2--3------------------------------------------------------
---5--------5----5------------------------------------------------------------
Pre-Chorus

--3---3---5---5--17-17-17-17-17-|---------------------------------------------
--5---3---7---5--17-17-17-17-17-|-7-------------------------------------------
--5---4---7---6-----------------|-7-------------------------------------------
--5---5---7---7-----------------|-7-------------------------------------------
--3---5---5---7-----------------|-5-------------------------------------------
------3-------5-----------------|---------------------------------------------
Chorus Chorus ends on D strummed multiple times

Copyrights
Author: ?
Composer: ?
Publisher: ?
More details
Language: English

Reactions

CommonCrawl [Bot]

Follow Muzikum