Red Hot Chili Peppers
Zephyr Song Solo (Guitar tab)

song: the zephyr song
artist: red hot chili peppers

standard tuning

Here is the solo:

e -12-10-12-12----12----10--12---------------
B -----------------------------(14)r12-10----
G --------------------------------------------
D --------------------------------------------
A --------------------------------------------
E --------------------------------------------

e --------------------------------------------
B -15-13-15-15----15----13--15----------------
G -----------------------------(16)r14-12-----
D --------------------------------------------
A --------------------------------------------
E --------------------------------------------

The 2nd part is almost the same:

e -12-10-12-12--------10--12-----------------
B -----------------------------(14)r12-10----
G --------------------------------------------
D --------------------------------------------
A --------------------------------------------
E --------------------------------------------

e --------------------------------------------
B -15-13-15-15--------15-13-15----------------
G -----------------------------(16)r14-14-12--
D --------------------------------------------
A --------------------------------------------
E --------------------------------------------

Copyrights
Author: ?
Composer: ?
Publisher: ?
More details
Language: English

Reactions

CommonCrawl [Bot]

Follow Muzikum