Red Hot Chili Peppers
Dont Forget Me Ver 5 (Guitar tab)

Author/Artist: red hot chili peppers
Title: don't forget me
Transcribed by: Saverain
Email: saverain@hotmail.com

This is what it sounds like to me and if you don't
like it E-mail me
you'll have to find the lyrics somewhere else sorry.
I are not to good words
v strum down
^ strum up
b bend r release bend h hammer on
m mute / slide up \ slide down
s strum down slowly

-|-----------------------------------------|----------------------------------
-|-----------------------------------------|----------------------------------
-|-----------------------------------------|----------------------------------
-|---x-x-x-x---x-x-x-3h5-x-x-x-x---x-x-x-x-|---x-x-x-x---x-x-x-x-5-x-x-x-x----
-|-7-x-x-x-x-3-x-x-x---3-x-x-x-x-5-x-x-x-x-|-7-x-x-x-x-3-x-x-x-x-3-x-x-x-x-5--
-|-5-x-x-x-x-1-x-x-x-----x-x-x-x-3-x-x-x-x-|-5-x-x-x-x-1-x-x-x-x---x-x-x-x-3--
v v ^ v ^ v v ^ v ^ v v ^ v ^ v v ^ v ^ verse

---------|---|-5-|-8-|-5---1---3---3-|-5-----5--------5------5-------|-3/5-3--
---------|-8-|-8-|-8-|-5---1---5---3-|---8-5---8-5-5----8-5-----8--5-|--------
---------|---|---|---|-5---2---5---4-|-------------------------------|--------
-x-x-x-x-|---|---|---|-7---3---5---5-|-------------------------------|--------
-x-x-x-x-|---|---|---|-7---3---3---5-|-------------------------------|--------
-x-x-x-x-|---|---|---|-5---1---3---3-|-------------------------------|--------
p.m 8 on b chorus chords first two times play

---3/5-3-0-0--3/5-3---3/5--3--0-|-5------5-------5-----5-----|-3/5-3----3/5-3-
-5------------------5-----------|---8-5----8--5----8-5---8-5-|-------5--------
--------------------------------|----------------------------|----------------
--------------------------------|----------------------------|----------------
--------------------------------|----------------------------|----------------
--------------------------------|----------------------------|----------------
this over first part part 2 play over part

--0--3/5-3---3/5-3-0-|--------------------------------------------------------
-----------5---------|--------------------------------------------------------
---------------------|--------------------------------------------------------
---------------------|--------------------------------------------------------
---------------------|--------------------------------------------------------
---------------------|--------------------------------------------------------
2

Copyrights
Author: ?
Composer: ?
Publisher: ?
More details
Language: English

Reactions

CommonCrawl [Bot]

Follow Muzikum