Red Hot Chili Peppers
Cant Stop Ver 4 (Guitar tab)

Author/Artist: Red Hot Chili Peppers
Title: Can't Stop
Album: By The Way
Transcribed by: Richard Armstrong
Email: Hydromaniac@hotmail.com

The rest will come later

Intro

e|--------------------------------
B|--------------------------------
G|--------------------------------
D|--------------------------------
A|--5-7vv-5-7vv-5-7vv-5-7vv-5-7--- x4
E|--------------------------------

e|--------------------------------
B|--------------------------------
G|--------------------------------
D|--------------------------------
A|--5-7vv-5-7vv-5-7vv-5-----5-7--- x1
E|----------------------7vv-------

e|--------------------------------
B|--------------------------------
G|--------------------------------
D|--------------------------------
A|--5-7vv-5-7vv-5-7vv-5-7vv-5-7--- x3
E|--------------------------------

Main Riff
%
e|------|------------------------------------------------------------
B|------|------------------------------------------------------------
G|------|-7-9---------7-9-----------7-9-----------7-9-----------7-9--
D|------|------------------------------------------------------------
A|--7-7-|------7-7-7-------7-7-7-5---------5-5-5-------5-5-5---------
E|------|----------------------------------------------------7-------

e|-------------------------------------------------
B|-------------------------------------------------
G|---------7-9-----------7-9---------7-9----------- Repeat
D|------------------------------------------------- from %
A|----------------------------------------------7--
E|--7-7-7-------7-7-7-8-------8-8-8-------8-8-8----

Copyrights
Author: ?
Composer: ?
Publisher: ?
More details
Language: English

Reactions

CommonCrawl [Bot]

Follow Muzikum