Red Hot Chili Peppers
My Lovely Man Ver 2 (Guitar tab)

My Lovely Man
by Red Hot Chili Peppers
Album: Blood Sugar Sex Magik


Verse (Shift parts up an octave sometimes)

|-----------------------------------------------------------------------------------|
|-----------------------------------------------------------------------------------|
|-------------------------------7---------------------------------------------------|
|---------------------7--5--/9----9p7-----------------------------------------------|
|--7--5--7--5--7--5--------------------10---7--5--7--5--7--5------------5-----------|
|-------------------------------------------------------------5--3--/7----7---5-----|

Chorus - nowhere near exact....it's a jam thing....A, B, E

|-----x-8-----x-8---------------x--10-----x-10------------------------------------|
|-----x-8-----x-8---------------x--10-----x-10------------14--12------------14-12-|
|-----x-5-----x-5---------------x--7------x-7-------------14--12------------14-14-|
|-5h7-----5h7-----x-5h7-----7h9-------7h9--------12h14-12---------12h14--12-------|
|---------------------------------------------------------------------------------|
|---------------------------------------------------------------------------------|

Solo- Part 1
|-----------------------------------------------------------------------------------|
|--12~~~~~~--14-15--14--14-----8~~------5~~------3~~--------------------------------|
|--14b16~~~~~~~~~~~~~~~~~~~~---10b12----7b9------5b7--b7-b7-b7--b7-b7---------------|
|-----------------------------------------------------------------------------------|
|-----------------------------------------------------------------------------------|
|-----------------------------------------------------------------------------------|

Solo- Part 2 (not sure....I'm not a good guitarist see)
The main little thing he works with is like this, real fast.
|-----------------------------------------------------------------------------------|
|-------------------15--------------------------------------------------------------|
|-14-12-14-12-14b15-----------------------------------------------------------------|
|-----------------------------------------------------------------------------------|
|-----------------------------------------------------------------------------------|
|-----------------------------------------------------------------------------------|

Copyrights
Author: ?
Composer: ?
Publisher: ?
More details
Language: English

Reactions

CommonCrawl [Bot]

Follow Muzikum