Red Hot Chili Peppers
Knock Me Down Ver 3 (Guitar tab)

rEd HoT cHiLi PePpErS
Knock Me Down
Mother's Milk
Kiedis-Flea-Frusciante-Smith
Tabbed by Matias Mandirola

Intro
e|----------------------|
B|------------------6---|
G|------------------7---|
D|------------------7---|
A|-----3---7---3s5------|
E|-3h5---5---5----------|

e|-------------------------|
B|------------------6h8p6--|
G|------------------7------|
D|------------------7------|
A|-----3---7---3s5---------|
E|-3h5---5---5-------------|

e|-----------------------------|
B|------------------6----------|
G|------------------7----2~----|
D|------------------7----3~----|
A|-----3---7---3s5-------3~----|
E|-3h5---5---5-----------1~----|

Verse (Riff 1)
e|-5-5-----------------------|-5-5-------------------|
B|-6-6--5-5-5-3-3--3-3-3-(5)-|-6-6-------------------|
G|-7-7--5-5-5-3-3--3-3-3-(5)-|-7-7--5-5-5-3-3----x-x-|
D|-7-7--5-5-5-3-3--3-3-3-(5)-|-7-7--5-5-5-3-3----x-x-|
A|-5-5--7-7-7-5-5--5-5-5-(7)-|-5-5--3-3-3-1-1----x-x-|
E|------5-5-5-3-3--3-3-3-(5)-|-----------------------|

e|-5-5----------------------|---------------------------------|
B|-6-6--5-5-5-3-3--3-3-3----|---------------------------------|
G|-7-7--5-5-5-3-3--3-3-3----|---------------------------------|
D|-7-7--5-5-5-3-3--3-3-3----|-7-7-7-7-7-7-7-7-8-8-8-8-8-8-8-8-|
A|-5-5--7-7-7-5-5--5-5-5----|-7-7-7-7-7-7-7-7-8-8-8-8-8-8-8-8-|
E|------5-5-5-3-3--3-3-3----|-5-5-5-5-5-5-5-5-6-6-6-6-6-6-6-6-|

Verse (Riff 2)
e|-7-7-----------------------|-7-7-------------------|
B|-8-8--7-7-7-5-5--5-5-5-(7)-|-8-8-------------------|
G|-9-9--7-7-7-5-5--5-5-5-(7)-|-9-9--7-7-7-5-5----x-x-|
D|-9-9--7-7-7-5-5--5-5-5-(7)-|-9-9--7-7-7-5-5----x-x-|
A|-7-7--9-9-9-7-7--7-7-7-(9)-|-7-7--5-5-5-3-3----x-x-|
E|------7-7-7-5-5--5-5-5-(7)-|-----------------------|

e|-7-7-----------------------|----------------------------------|
B|-8-8--7-7-7-5-5--5-5-5-----|----------------------------------|
G|-9-9--7-7-7-5-5--5-5-5-----|----------------------------------|
D|-9-9--7-7-7-5-5--5-5-5-----|-9-9-9-9-9-9-9-9-1010101010101010-|
A|-7-7--9-9-9-7-7--7-7-7-----|-9-9-9-9-9-9-9-9-1010101010101010-|
E|------7-7-7-5-5--5-5-5-----|-7-7-7-7-7-7-7-7-8-8-8-8-8-8-8-8--|

Chorus
e|----------------------|----------------------|
B|----------------------|----------------------|
G|-7-7-5-5-5--7-7-5-5-5-|-----9-9-9------------|
D|-7-7-5-5-5--7-7-5-5-5-|-7-7-9-9-9--2-2-5-5-5-|
A|-5-5-3-3-3--5-5-3-3-3-|-7-7-7-7-7--2-2-5-5-5-|
E|----------------------|-5-5--------0-0-3-3-3-|

Verse (Riff 3)
e|-7-7-----------------------|-4-4-------------------|
B|-8-8--7-7-7-5-5--5-5-5-----|-5-5--4-4-4-2-2-2-2----|
G|-9-9--7-7-7-5-5--5-5-5-----|-4-4--4-4-4-2-2-2-2----|
D|-9-9--7-7-7-5-5--5-5-5-----|-6-6--4-4-4-2-2-2-2----|
A|-7-7--9-9-9-7-7--7-7-7-----|-4-4--6-6-6-4-4-4-4----|
E|---------------------------|------4-4-4-2-2-2-2----|

e|-7-7-----------------------|-4-4-------------------|
B|-8-8--7-7-7-5-5--5-5-5-----|-5-5--4-4-4-2-2-2-2----|
G|-9-9--7-7-7-5-5--5-5-5-----|-4-4--4-4-4-2-2-2-2----|
D|-9-9--7-7-7-5-5--5-5-5-----|-6-6--4-4-4-2-2-2-2----|
A|-7-7--9-9-9-7-7--7-7-7-----|-4-4--6-6-6-4-4-4-4----|
E|---------------------------|------4-4-4-2-2-2-2----|

Pre - Solo
e|---------------------------------|
B|---------------------------------|
G|-7---9-------------10-10-5-5-5---|
D|-7---9-8---8-5-5/8-10-10-5-5-5-8-|
A|-5-0-7-8---8-5-5/8-8--8--3-3-3-8-|
E|-------6---6-3-3/6-------------6-|

Solo
e|---------------------------------|---------------------------------|
B|---------------------------------|---------------------------------|
G|-6-6-6-6-6-6-6-6-2-2-2-2-2-2-2-2-|-6-6-6-6-6-6-6-6-2-2-2-2-2-2-2-2-|
D|-7-7-7-7-7-7-7-7-3-3-3-3-3-3-3-3-|-7-7-7-7-7-7-7-7-3-3-3-3-3-3-3-3-|
A|-7-7-7-7-7-7-7-7-3-3-3-3-3-3-3-3-|-7-7-7-7-7-7-7-7-3-3-3-3-3-3-3-3-|
E|-5-5-5-5-5-5-5-5-1-1-1-1-1-1-1-1-|-5-5-5-5-5-5-5-5-1-1-1-1-1-1-1-1-|

e|---------------------------------|
B|---------------------------------|
G|-4-4-4-4-4-4-4-4-2-2-6~~~--------|
D|-5-5-5-5-5-5-5-5-3-3-7~~~--------|
A|-5-5-5-5-5-5-5-5-3-3-7~~~--------|
E|-3-3-3-3-3-3-3-3-1-1-5~~~--------|

Last Chorus
e|--------------------------|-4-4--------------------|
B|--------------------------|-5-5--4-4-4-------------|
G|-11-11-9-9-9--11-11-9-9-9-|-6-6--4-4-4-------4-4-4-|
D|-11-11-9-9-9--11-11-9-9-9-|-6-6--4-4-4--2-2--4-4-4-|
A|-9--9--7-7-7--9--9--7-7-7-|-4-4--6-6-6--2-2--2-2-2-|
E|--------------------------|------4-4-4--0-0--------|

Ending
e|---------------------------------|---------------------------------|
B|---------------------------------|---------------------------------|
G|-6-6-6-6-6-6-6-6-6-6-6-6-6-6-6-6-|-9-9-9-9-9-9-9-9-----------------|
D|-6-6-6-6-6-6-6-6-6-6-6-6-6-6-6-6-|-9-9-9-9-9-9-9-9-9-9-9-9-9-9-9-9-|
A|-4-4-4-4-4-4-4-4-4-4-4-4-4-4-4-4-|-7-7-7-7-7-7-7-7-9-9-9-9-9-9-9-9-|
E|---------------------------------|-----------------7-7-7-7-7-7-7-7-|

Parts:

Intro
Verse Riff 1 --------- Never too soon to be through...
Verse Riff 2 --------- Don't be afraid to show your friends...
Chorus x2 --------- If you see me getting mighty If you see me...
Verse Riff 1 --------- I'm tired of being untouchable...
Verse Riff 3 --------- Finding what you're looking for can end up...
Chorus x 2
Pre - Solo
Solo
Chorus x4
Last Chorus x2
Ending (Fade Out)------- It's so lonely when you don't even know yourself...

____ / /
/ | ___|__|_
_|___|__ | | \
_|___|__|__|__|_________
_|___|__|__|__|_|________
| | | | | | _ _
| | | | ||||/ || |
_______|_ \|| |\_|
_ | /
\| / . _ . /\
|/ \/_\/\ \ \/
|\ || | \| /\
/| \ \\__|/ |/ \
/ | \ /
/ \ /

Copyrights
Author: ?
Composer: ?
Publisher: ?
More details
Language: English

Reactions

CommonCrawl [Bot]

Follow Muzikum