Red Hot Chili Peppers
Californication Live Solo (Guitar tab)

e|---9---------------9-----------------------------------------------|
b|10-------------10--------------------------------------------------|
g|-----11b/r------------11b/r--11-11-11-11/9-9-9--11-11-9---9-11-----|
d|--------------------------------------------------------11---------|
a|-------------------------------------------------------------------|
E|-------------------------------------------------------------------|


e|---9---12---14-----9---12--14b/r--14---17-16-14---14---------------|
b|10-------------10-------------------------------17---17--14-17-----|
g|-------------------------------------------------------------------|
d|-------------------------------------------------------------------|
a|-------------------------------------------------------------------|
E|-------------------------------------------------------------------|



e|--------------------------------------------14b/r-12--12-----------|
b|--14-14-14---14----14-14--14--14-14--17-14----------14--14-12------|
g|-------------16b----------16b--------------------------------------|
d|-------------------------------------------------------------------|
a|-------------------------------------------------------------------|
E|-------------------------------------------------------------------|

e|---12---10---9---|

Copyrights
Author: ?
Composer: ?
Publisher: ?

Reactions

CommonCrawl [Bot]

Follow Muzikum