Red Hot Chili Peppers
Yertle The Turtle (Guitar tab)

Author/Artist: Red Hot Chili Peppers
Title: Yertle The Turtle
Album: Freaky Styley
Transcribed by: Greenie 12




Main Riff: With Wah-Wah

-||---------------------------------------------------------------------|-
-||-----------------------------------x-x--11\--------------------------|-
-||-*--10--10--10-10------------------x-x-------------------------------|-
-||-*-----------------x-x--8--x--10-------------------------------------|-
-||---------------------------------------------------------------------|-
-||---------------------------------------------------------------------|-


-|---------------------------------------------------------------------||-
-|-----------------------------------x-x--13\--------------------------||-
-|----10--10--10-10------------------x-x-----------------------------*-||-
-|-------------------x-x--8--x--10-----------------------------------*-||-
-|---------------------------------------------------------------------||-
-|---------------------------------------------------------------------||-


Chorus: With-Wah

G5 Bb5 C5 Bb5 G5 Bb5
-||-----------------------------------------------------||-
-||-----------------------------------------------------||-
-||-*-------------------------------------------------*-||-
-||-*--5----5---x-x--8----10----8-------5--5----5--8--*-||-
-||----5----5---x-x--8----10----8-------5--5----5--8----||-
-||----3----3---x-x--6-----8----6-------3--3----3--6----||-


Interlude:

-||-----------------------------------|---------------------------------------||-
-||-----------------------------------|---------------------------------------||-
-||-----------------------------------|---------------------------------------||-
-||-----------------------------------|---------------------------------------||-
-||--3-3--3-3--3-3--3--2--1-1--x-1-1--|--------------3--3--5--5-------4-4--3--||-
-||-----------------------------------|--3--3--6--6--------------3------------||-
> > > > >

Then Bass play this:

-||-----------------------------|-----------------------------------||-
-||-----------------------------|-----------------------------------||-
-||-----------------------------|-----------------------------------||-
-||-----------------------------|-----------------------------------||-
-||----1--3--------1-1--1--3----|----1--3--------1-1--1--3----------||-
-||-----------------------------|-----------------------------------||-

...and Guitar this: Just mute all the strings while you rock
the Wah up and down in certain rythms.

-||---------------------------------------------------------||-
-||----x--x--x--x--x--x--x--x--x--x--x--x--x--x--x--x--x----||-
-||----x--x--x--x--x--x--x--x--x--x--x--x--x--x--x--x--x----||-
-||----x--x--x--x--x--x--x--x--x--x--x--x--x--x--x--x--x----||-
-||---------------------------------------------------------||-
-||---------------------------------------------------------||-


> = Accentuate the note, play it louder
x = Mute the string

Copyrights
Author: ?
Composer: ?
Publisher: ?
More details
Language: English

Reactions

CommonCrawl [Bot]

Follow Muzikum