Red Hot Chili Peppers
Tiny Dancer (Guitar tab)

Author/Artist: Elton John cover/Red Hot Chili Peppers
Title: Tiny Dancer
Album: Live
Transcribed by: Greenie 12


This is how you play it


F Am7 Dm F
-||--------------------|-------------------------|-------------------------|-
-||--6----6----5----5--|--6----6---6--6-6--------|-----6--6-6----5----5----|-
-||--5----5----5----5--|--7----7---7--7-7--------|-----5--5-5----5----5----|-
-||--7----7----5----5--|--7----7---7--7-7--------|-----7--7-7----5----5----|-
-||--8----8----7----7--|--5----5---5--5-5---5-7--|--8--8--8-8----7----7----|-
-||--------------------|-------------------------|-------------------------|-


G
-|-----------------------|-
-|--3---3--3--3--3--x-x--|-
-|--4---4--4--4--4--x-x--|-
-|--5---5--5--5--5--x-x--|-
-|--5---5--5--5--5--x-x--|-
-|--3---3--3--3--3-------|-


Lyrics:

F Am7 Dm
Hold me closer, Tiny Dancer
F Am7 G
Count the headlights on the highway
F Am7 Dm
Lay me down in sheets of linen
F Am7 G
You had a busy day today

Copyrights
Author: ?
Composer: ?
Publisher: ?
More details
Language: English

Reactions

CommonCrawl [Bot]

Follow Muzikum