Red Hot Chili Peppers
Sikamikanico (Guitar tab)

Author/Artist: Red Hot Chili Peppers
Title: Sikamikanico
Album: Blood Sugar Sex Magik B-Side
Transcribed by: Greenie 12


Intro

Play 5 times Last time play this
-||-------------------------------------------||-------------------------------------||
-||-------------------------------------------||-------------------------------------||
-||-*--0-0-0-0-3-0-0-0-3-0-0-0-3-0-0-0-0-5--*-||---0-0-0-0-3-0-0-0-3-0-0-3-0-0-3-0---||
-||-*--0-0-0-0-3-0-0-0-3-0-0-0-3-0-0-0-0-5--*-||---0-0-0-0-3-0-0-0-3-0-0-3-0-0-3-0---||
-||-------------------------------------------||-------------------------------------||
-||-------------------------------------------||-------------------------------------||

Verse 1

-||---------------------------------------||-
-||---------------------------------------||-
-||-*--0-0-0-0-3-0-0-0-3-0-0-3-0-0-3-0--*-||-
-||-*--0-0-0-0-3-0-0-0-3-0-0-3-0-0-3-0--*-||-
-||---------------------------------------||-
-||---------------------------------------||- x3

Play 3 times Last time play this
-||-------------------------------------------||-------------------------------------||
-||-------------------------------------------||-------------------------------------||
-||-*--0-0-0-0-3-0-0-0-3-0-0-0-3-0-0-0-0-5--*-||---0-0-0-0-3-0-0-0-3-0-0-3-0-0-3-0---||
-||-*--0-0-0-0-3-0-0-0-3-0-0-0-3-0-0-0-0-5--*-||---0-0-0-0-3-0-0-0-3-0-0-3-0-0-3-0---||
-||-------------------------------------------||-------------------------------------||
-||-------------------------------------------||-------------------------------------||

Verse 2

-||---------------------------------------||-
-||---------------------------------------||-
-||-*--0-0-0-0-3-0-0-0-3-0-0-3-0-0-3-0--*-||-
-||-*--0-0-0-0-3-0-0-0-3-0-0-3-0-0-3-0--*-||-
-||---------------------------------------||-
-||---------------------------------------||- x3

Pre-Chorus

B5 D
-||--------------------------------------||-
-||-----------------------7-x-x-7-x-7----||-
-||-*---------------------7-x-x-7-x-7--*-||-
-||-*--9-9-9-9-9-9-9-9----7-x-x-7-x-7--*-||-
-||----9-9-9-9-9-9-9-9-------------------||-
-||----7-7-7-7-7-7-7-7-------------------||- x4

Chorus

-||------------------------------|--------------------------------||-
-||------------------------------|--------------------------------||-
-||--4-4-4-4--4-4-4-4--x-x--5-5--|--4-4-4-4--4-4-4-4--x-x--7--5---||-
-||--4-4-4-4--4-4-4-4--x-x--5-5--|--4-4-4-4--4-4-4-4--x-x--7--5---||-
-||--2-2-2-2--2-2-2-2--x-x--3-3--|--2-2-2-2--2-2-2-2--x-x--5--3---||-
-||------------------------------|--------------------------------||- x2

Verse 3

-||---------------------------------------||-
-||---------------------------------------||-
-||-*--0-0-0-0-3-0-0-0-3-0-0-3-0-0-3-0--*-||-
-||-*--0-0-0-0-3-0-0-0-3-0-0-3-0-0-3-0--*-||-
-||---------------------------------------||-
-||---------------------------------------||- x3

Play 3 times Last time play this
-||-------------------------------------------||-------------------------------------||
-||-------------------------------------------||-------------------------------------||
-||-*--0-0-0-0-3-0-0-0-3-0-0-0-3-0-0-0-0-5--*-||---0-0-0-0-3-0-0-0-3-0-0-3-0-0-3-0---||
-||-*--0-0-0-0-3-0-0-0-3-0-0-0-3-0-0-0-0-5--*-||---0-0-0-0-3-0-0-0-3-0-0-3-0-0-3-0---||
-||-------------------------------------------||-------------------------------------||
-||-------------------------------------------||-------------------------------------||

Verse 4

-||---------------------------------------||-
-||---------------------------------------||-
-||-*--0-0-0-0-3-0-0-0-3-0-0-3-0-0-3-0--*-||-
-||-*--0-0-0-0-3-0-0-0-3-0-0-3-0-0-3-0--*-||-
-||---------------------------------------||-
-||---------------------------------------||- x3

Pre-Chorus

B5 D
-||--------------------------------------||-
-||-----------------------7-x-x-7-x-7----||-
-||-*---------------------7-x-x-7-x-7--*-||-
-||-*--9-9-9-9-9-9-9-9----7-x-x-7-x-7--*-||-
-||----9-9-9-9-9-9-9-9-------------------||-
-||----7-7-7-7-7-7-7-7-------------------||- x4

Chorus

-||------------------------------|--------------------------------||-
-||------------------------------|--------------------------------||-
-||--4-4-4-4--4-4-4-4--x-x--5-5--|--4-4-4-4--4-4-4-4--x-x--7--5---||-
-||--4-4-4-4--4-4-4-4--x-x--5-5--|--4-4-4-4--4-4-4-4--x-x--7--5---||-
-||--2-2-2-2--2-2-2-2--x-x--3-3--|--2-2-2-2--2-2-2-2--x-x--5--3---||-
-||------------------------------|--------------------------------||- x2

Interlude

-||------------|-----------------------|---------|-----------||-
-||------------|-----------------------|---------|-----------||-
-||-*----------|----9br--7-------------|---------|---------*-||-
-||-*----------|-------------9--7------|---------|---------*-||-
-||------------|-------------------10--|---------|-----------||-
-||------0-----|-----------------------|----0----|-----0-----||-


-||-------------------------------------------||-------------------------------------||
-||-------------------------------------------||-------------------------------------||
-||-*--0-0-0-0-3-0-0-0-3-0-0-0-3-0-0-0-0-5--*-||---0-0-0-0-3-0-0-0-3-0-0-3-0-0-3-0---||
-||-*--0-0-0-0-3-0-0-0-3-0-0-0-3-0-0-0-0-5--*-||---0-0-0-0-3-0-0-0-3-0-0-3-0-0-3-0---||
-||-------------------------------------------||-------------------------------------||
-||-------------------------------------------||-------------------------------------||

You�ll figure out the rest.

Copyrights
Author: ?
Composer: ?
Publisher: ?
More details
Language: English

Reactions

CommonCrawl [Bot]

Follow Muzikum