Red Hot Chili Peppers
Higher Ground Ver 2 (Guitar tab)

Author/Artist: Red Hot Chili Peppers
Title: Higher Ground
Album: Mother�s Milk (1989)
Transcribed by: Greenie12


There are two guitars in this song but will only tab
the first guitar, and some parts on the second guitar


Intro:

-||-------------------------------|---------------------------------|-
-||--x-12-x-12---x-x-x------------|--x-12-x-12----------------------|-
-||--x-12-x-12---x-x-x--14-16-----|--x-12-x-12---------12-------12--|-
-||--x-12-x-12---x-x-x--------14--|--x-12-x-12---------12-------12--|-
-||-------------------------------|--------------12h14----12h14-----|-
-||-------------------------------|---------------------------------|-


-|-------------------------------|----------------------------------------|-
-|--x-12-x-12---x-x-x------------|--x-x-x---14-14-14--14-14-14--14-14-14--|-
-|--x-12-x-12---x-x-x--14-12-----|--x-x-x---14-14-14--14-14-14--14-14-14--|-
-|--x-12-x-12---x-x-x--------14--|--x-x-x---14-14-14--14-14-14--14-14-14--|-
-|-------------------------------|----------------------------------------|-
-|-------------------------------|----------------------------------------|-

-|-------------------------------|---------------------------------|-
-|--x-12-x-12---x-x-x------------|--x-12-x-12----------------------|-
-|--x-12-x-12---x-x-x--14-16-----|--x-12-x-12---------12-------12--|-
-|--x-12-x-12---x-x-x--------14--|--x-12-x-12---------12-------12--|-
-|-------------------------------|--------------12h14----12h14-----|-
-|-------------------------------|---------------------------------|-

-|--------------------------------|----------------------------------||-
-|--x-12-x-12---x-x-x---------12--|--x-12-x-12---14-14-14--14-14-14--||-
-|--x-12-x-12---x-x-x---------12--|--x-12-x-12---14-14-14--14-14-14--||-
-|--x-12-x-12---x-x-x---------12--|--x-12-x-12---14-14-14--14-14-14--||-
-|----------------------12h14-----|----------------------------------||-
-|--------------------------------|----------------------------------||-

Verse:

People.... (x8) World.... (x2)
-||--------------------------|-------------------------------|-
-||--------------------------|---14---14---14---14-14--16----|-
-||-*----------------------*-|-*-14---14---14---14-14--16--*-|-
-||-*----------------------*-|-*-14---14---14---14-14--16--*-|-
-||-----------------5----7---|-------------------------------|-
-||--0-0-0--0-0-0---3----5---|-------------------------------|-

turnin�.... Cause it won�t be too
-|-------------------------|------------------------------------------|-
-|--14-x--14-14---14---14--|--15-15-15--15-15-15--14-14-14--13-13-13--|-
-|--14-x--14-14---14---14--|--14-14-14--14-14-14--13-13-13--12-12-12--|-
-|--14-x--14-14---14---14--|------------------------------------------|-
-|-------------------------|------------------------------------------|-
-|-------------------------|------------------------------------------|-

|1.-----------------------------|----------------------------------|
| long. | |
-|-------------------------------|----------------------------------|-
-|--x-12-x-12---x-x-x------------|--x-12-x-12---15-15-15--14-14-14--|-
-|--x-12-x-12---x-x-x--14-16-----|--x-12-x-12---14-14-14--14-14-14--|-
-|--x-12-x-12---x-x-x--------14--|--x-12-x-12---14-14-14--14-14-14--|-
-|-------------------------------|----------------------------------|-
-|-------------------------------|----------------------------------|-

|--------------------------------|-----------------------------------|
| | |
-|--------------------------------|-----------------------------------|-
-|--x-12-x-12---x-x-x-------------|--x-12-x-12---15-15-15--14-14-14---|-
-|--x-12-x-12---x-x-x-------------|--x-12-x-12---14-14-14--14-14-14-*-|-
-|--x-12-x-12---x-x-x---------12--|--x-12-x-12---14-14-14--14-14-14-*-|-
-|----------------------12h14-----|-----------------------------------|-
-|--------------------------------|-----------------------------------|-

|2.------------------------------|----------------------------------|
| long. | |
-|--------------------------------|----------------------------------|-
-|--x-12-x-12---x-x-x-------------|--x-12-x-12---15-15-15--14-14-14--|-
-|--x-12-x-12---x-x-x-------------|--x-12-x-12---14-14-14--14-14-14--|-
-|--x-12-x-12---x-x-x---------12--|--x-12-x-12---14-14-14--14-14-14--|-
-|----------------------12h14-----|----------------------------------|-
-|--------------------------------|----------------------------------|-

|---------------------------------|----------------------------------|
| | |
-|---------------------------------|--------------15-15-15--14-14-14--|-
-|--x-12-x-12---x-x-x--------------|--x-12-x-12---15-15-15--14-14-14--|-
-|--x-12-x-12---x-x-x---14-12------|--x-12-x-12---14-14-14--14-14-14--|-
-|--x-12-x-12---x-x-x----------14--|--x-12-x-12-----------------------|-
-|---------------------------------|----------------------------------|-
-|---------------------------------|----------------------------------|-




Chorus:

I�m so darn glad he let me try it again... (x3)
-||---15---15--------15-----15----|----------------------------|-
-||---15---15---x-x--15--x--15----|-----------------------8----|-
-||-*-14---14---x-x--14--x--14----|-----------------------7--*-|-
-||-*-----------------------------|----------5---------------*-|-
-||-------------------------------|----------5-----------------|-
-||-------------------------------|--0-0-0--------0-0-0--------|-

keep on tryin till I reach the highest
-|------------------|------------------------------------------|-
-|------------------|--12-12-12--12-12-12--12-12-12--12-12-12--|-
-|--11--11--11--11--|--12-12-12--12-12-12--12-12-12--12-12-12--|-
-|--11--11--11--11--|--12-12-12--12-12-12--12-12-12--12-12-12--|-
-|---9---9---9---9--|------------------------------------------|-
-|------------------|------------------------------------------|-

|1.----------------------------------|-----------------------------------|
| ground. | |
-|------------------------------------|-----------------------------------|-
-|------------------------------------|---------------15-15-15--14-14-14--|-
-|------------------------------------|---------------14-14-14--14-14-14--|-
-|--12--12-14-----------12------------|--12--12-14----14-14-14--14-14-14--|-
-|----------------12h14----14p12------|-----------------------------------|-
-|--------------------------------15--|-----------------------------------|-

|--------------------------------------|----------------------------|
| | |
-|--------------------------------------|---------------------------||-
-|--12----------------------------------|--x----x-------------------||-
-|--12----------------------------------|--x-12-x-------------------||-
-|-----14--12-14-----------12-14p12-----|--x-12-x-14----------------||-
-|-------------------12h14----------14--|--------------/14--14~~~~--||-
-|--------------------------------------|---------------------------||-

Then go back and play the verse figure, till you
get to the next chorus.

|2.--------------------------------|-----------------------------------|
| ground. | |
-|----------------------------------|-----------------------------------|-
-|----------------------------------|---------------15-15-15--14-14-14--|-
-|----------------------------------|---------------14-14-14--14-14-14--|-
-|--14---12-14---------12-----------|--14---12-14---14-14-14--14-14-14--|-
-|---------------12h14----14h12-----|-----------------------------------|-
-|------------------------------15--|-----------------------------------|-

|-----------------------------------|-------------------------------|
| | |
-|-----------------------------------|------------------------------||-
-|-----------------------------------|---------------x-x-x---14~~~--||-
-|-----------------------------------|---------------x-x-x---14~~~--||-
-|--14---12--14---------12-14p12-----|--14---12-14---x-x-x----------||-
-|----------------12h14----------14--|------------------------------||-
-|-----------------------------------|------------------------------||-

Outro: Faster, Could be double speed

-||---------------------------|--------------------||-
-||---------------------------|--------------------||-
-||-*-------------------------|--12----14----12--*-||-
-||-*-14--14-14--14-14-14-14--|--12----14----12--*-||-
-||---14--14-14--14-14-14-14--|--------------------||-
-||---------------------------|--------------------||-

Copyrights
Author: ?
Composer: ?
Publisher: ?
More details
Language: English

Reactions

CommonCrawl [Bot]

Follow Muzikum