Red Hot Chili Peppers
Fire (Guitar tab)

Author/Artist: Red Hot Chili Peppers
Title: Fire
Album: Mother�s Milk & Live
Transcribed by: Greenie12


Intro:

-|-----------|--------------|--------------|--------------|------------------|-
-|-----------|--------------|--------------|--------------|------------------|-
-|-----------|--------------|--------------|--------------|------------------|-
-|--------6--|--5\----3--5--|-----------6--|--5\----3--5--|------------------|-
-|-----------|--------------|--5-5---------|--------------|--5-5-------3--5--|-
-|-----------|--------------|--------------|--------------|--------/5--------|-

Live during the Californication
Tour, an octave higher

-|-----------|-------------|- -|-----------------|------------|-
-|-----------|-------------|- -|-----------------|------------|-
-|-----------|-------------|- -|-----------------|------------|-
-|-----------|-------------|- -|---------10--12--|--12--------|-
-|--5--------|-------3--5--|- -|----/12----------|------------|-
-|-----------|----5--------|- -|-----------------|------------|-

Verse:

-|-------|-------------|-------|-------------|-------|-------------|-------|-
-|-------|-------------|-------|-------------|-------|-------------|-------|-
-|-------|-------------|-------|-------------|-------|-------------|-------|-
-|-------|-------------|-------|-------------|-------|-------------|-------|-
-|--5----|-------3--5--|--5----|-------3--5--|--5----|-------3--5--|--5----|-
-|-------|----5--------|-------|----5--------|-------|----5--------|-------|-


-|-------------|-------|-----------------------|-
-|-------------|-------|----13)~~~-------------|-
-|-------------|-------|----12-------10tr11----|-
-|-------------|-------|-----------------------|-
-|-------3--5--|--5----|-----------------------|-
-|----5--------|-------|-----------------------|-

Chorus: Play Chorus, then back to verse again

-|---------------------|-------------------|---------------------|-------------------|-
-|---------------------|-------------------|---------------------|-------------------|-
-|----7-----7--7----5--|-------------------|----7-----7--7----5--|-------------------|-
-|----7-----7--7----5--|-------------------|----7-----7--7----5--|-------------------|-
-|----5-----5--5----3--|----2-2--3-3--4-4--|----5-----5--5----3--|----2-2--3-3--4-4--|-
-|---------------------|-------------------|---------------------|-------------------|-

-|---------------------|-------------------|---------------------|-------------------|-
-|---------------------|-------------------|---------------------|-------------------|-
-|----7-----7--7----5--|-------------------|----7-----7--7----5--|-------------------|-
-|----7-----7--7----5--|-------------------|----7-----7--7----5--|-------------------|-
-|----5-----5--5----3--|----2-2--3-3--4-4--|----5-----5--5----3--|----2-2--3-3--4-4--|-
-|---------------------|-------------------|---------------------|-------------------|-

Chorus: The Live one

-|-------10-10--12-10----10--|----------------------------------|-
-|-------10-10--10-10-----8--|----------------------------------|-
-|-------11-11--11-11-----9--|----------------------------------|-
-|-------12-12-----------10--|------10-10-10-------12-14p12-----|-
-|---------------------------|--/12----------12/14----------14--|-
-|--10-----------------------|----------------------------------|-

Last time end like this:

-|------10-10--12-10----10----|-------------------|--------------|-
-|------10-10--10-10-----8----|-------------------|--------------|-
-|------11-11--11-11-----9----|-------------------|--------------|-
-|------12-12-----------10----|------------10-12--|--12----------|-
-|----------------------------|--------/12--------|--------------|-
-|--10------------------------|-------------------|--------------|-

Solo:

-|----)------)\----------|---------------|----)---------)\--|----)---------------------|-
-|--15--15-15----12~~~~--|----12--15p12--|--15----15--15----|--15----15-15~~~~--15-15--|-
-|-----------------------|---------------|------------------|--------------------------|-
-|-----------------------|---------------|------------------|--------------------------|-
-|-----------------------|---------------|------------------|--------------------------|-
-|-----------------------|---------------|------------------|--------------------------|-

-|----)------)\----------|---------------|----)----------)\----|-------------------|-
-|--15--15-15----12~~~~--|----12--15-15--|--15---15-15-15------|-------------------|-
-|-----------------------|---------------|---------------------|--12~~~~~~---------|-
-|-----------------------|---------------|---------------------|-------------------|-
-|-----------------------|---------------|---------------------|-------------------|-
-|-----------------------|---------------|---------------------|-------------------|-

Solo 2: Improvise around this scale

-|--------------------------------12-15--|-
-|--------------------------12-15--------|-
-|--------------------12-14--------------|-
-|--------------12-14--------------------|-
-|--------12-14--------------------------|-
-|--12-15--------------------------------|-

Interlude:

-|-------------------|-------------------|-
-|-------------------|-------------------|-
-|--7-7-7-7-7-7-7-7--|--5-5-5-5-5-5-5-5--|-
-|--7-7-7-7-7-7-7-7--|--5-5-5-5-5-5-5-5--|-
-|--5-5-5-5-5-5-5-5--|--3-3-3-3-3-3-3-3--|-
-|-------------------|-------------------|-

-|-------------------|-------------------|-
-|-------------------|-------------------|-
-|--7-7-7-7-7-7-7-7--|--5-5-5-5-5-5-5-5--|-
-|--7-7-7-7-7-7-7-7--|--5-5-5-5-5-5-5-5--|-
-|--5-5-5-5-5-5-5-5--|--3-3-3-3-3-3-3-3--|-
-|-------------------|-------------------|-

Copyrights
Author: ?
Composer: ?
Publisher: ?
More details
Language: English

Reactions

CommonCrawl [Bot]

Follow Muzikum