Red Hot Chili Peppers
Give It Away Ver 4 (Guitar tab)

Hey There !
I found this on the Internet sometime ago...and I think that`s pretty much right.
I don�t know who tabed this out but that credits are from who did that.
If you want share things or just talk about music give an e-mail at
rodrigomusician@hotmail.com
Any correction..bla bla..are else very welcome.




Give It Away
Red Hot Chili Peppers





E||-------------8-----------|---11-----11-----11-----11-----11-----|
B||-------------11b---------|---11b-------------------------11b----|
G||--7------9---11b---------|------11r----11r----11r----11r----11r-|
D||--7--7---9-7-------------|--------------------------------------|
A||--0--0-----0-------------|--------------------------------------|
E||-------0-----------------|--------------------------------------|



-------------8-----------|---------------------------------|
-------------11b---------|---------------------------------|
--7------9---11b---------|---------------------------------|
--7--7---9-7-------------|--0-5---5-5---5-5---5-5---5-5----|
--0--0-----0-------------|---------------------------------|
-------0-----------------|------8-----8b----8b----8b----8b-|



-----------------------------|---------------------------|
-----------------------------|---------------------------|
-----x-x-7--6--5b----------x-|--------------7--8--9--x-x-|
--7--x-x----------x-5---5--x-|--7--------7-----------x-x-|
--0--------------------------|--0----5/7-----------------|
----------------------8b-----|---------------------------|



--------------------------|---------------------------|
--------------------------|---------------------------|
-----x-7--6--5---5--------|-----x-x--------7--5b------|
--7--x-----------------5--|--7--x-x-----7--------5b---|
--0-----------------------|--0------5/7---------------|
--------------------8b----|---------------------------|



------------------------------|--------------------------|
------------------------------|--------------------------|
--7--x-x-7--6--5b---------x-x-|------x--------7--8--9----|
--7--x-x----------x-5---5-x-x-|--7---x-5/7-7-------------|
--0---------------------------|--0-----5/7---------------|
----------------------8-------|--------------------------|



----------------------------|---------------------------|
----------------------------|---------------------------|
-----x-7--6--5b-x-----------|------x--------7--5b-----x-|
--7--x----------x-5------5--|--7---x-----7--------5---x-|
--0-------------------------|--------5/7----------------|
---------------------8-x----|---------------------------|



----------------------------|----------------------------|
----------------------------|----------------------------|
------x-7--6--5b------------|-----x-x--------7--8--9---x-|
--7---x----------x-5---5--x-|--7--x-------7------------x-|
--x-------------------------|--0------5/7-0--------------|
---------------------8------|----------------------------|



----------------------------|---------------------------|
----------------------------|---------------------------|
-----x-7--6--5--x-----------|-----x-x--------7--5b------|
--7--x----------x-5------5--|--7--x-x-----7--------5----|
--0-------------------------|--0------5/7-0--------0----|
---------------------8-x----|---------------------------|



--------------------------------|-----------------8------------|
--------------------------------|-----------------8-8--7---7---|
--------------------------------|-----------------8-8--7---7---|
--7--7-7-5-7-7-7-7--7-7-5h7-7---|--7-7-7-7-7--7-7----------7-7-|
--0--0-0-0-0-0-0-0--0-0-0---0-7-|--0-0-0-0-0--0-0------------0-|
--------------------------------|------------------------------|



--------------------------------|--------------5--------5-----5-5-|
--------------------------------|----------------5--5-5-5-5-5-5---|
--------------------------------|----------------7b-8-8-7b6-6-7b--|
--7-7-7-7-7-7-7-7-7--7-7-7--7-7-|--7-7-7-7------------0-----------|
--0-0-0-0-0-0-0-0-0--0-0-0--0-0-|--0-0-0-0-0-0--------------------|
--------------------------------|---------------------------------|



-----------------------------|---------------------------|
-----------------------------|---------------------------|
-----x-x-7--6--5b----------x-|--------------7--8--9--x-x-|
--7--x-x----------x-5---5--x-|--7--------7-----------x-x-|
--0--------------------------|--0----5/7-----------------|
----------------------8b-----|---------------------------|



--------------------------|---------------------------|
--------------------------|---------------------------|
-----x-7--6--5---5--------|-----x-x--------7--5b------|
--7--x-----------------5--|--7--x-x-----7--------5b---|
--0-----------------------|--0------5/7---------------|
--------------------8b----|---------------------------|



------------------------------|--------------------------|
------------------------------|--------------------------|
--7--x-x-7--6--5b---------x-x-|------x--------7--8--9----|
--7--x-x----------x-5---5-x-x-|--7---x-5/7-7-------------|
--0---------------------------|--0-----5/7---------------|
----------------------8-------|--------------------------|



----------------------------|---------------------------|
----------------------------|---------------------------|
-----x-7--6--5b-x-----------|------x--------7--5b-----x-|
--7--x----------x-5------5--|--7---x-----7--------5---x-|
--0-------------------------|--------5/7----------------|
---------------------8-x----|---------------------------|



----------------------------|----------------------------|
----------------------------|----------------------------|
------x-7--6--5b------------|-----x-x--------7--8--9---x-|
--7---x----------x-5---5--x-|--7--x-------7------------x-|
--x-------------------------|--0------5/7-0--------------|
---------------------8------|----------------------------|



----------------------------|---------------------------|
----------------------------|---------------------------|
-----x-7--6--5--x-----------|-----x-x--------7--5b------|
--7--x----------x-5------5--|--7--x-x-----7--------5----|
--0-------------------------|--0------5/7-0--------0----|
---------------------8-x----|---------------------------|



--------------------------------|--------------------8---7--7-5-|
--------------------------------|----------5---------8---7--7-5-|
--------------------------------|----------5---------8---7--7-5-|
--7--7-7-5-7-7-7-7--7-7-5h7-7---|--7-7-7-7---7-7-7-7------------|
--0--0-0-0-0-0-0-0--0-0-0---0-7-|--0-0-0-0---0-0-0-0------------|
--------------------------------|-------------------------------|



---------------------------------|
---------------------------------|
---------------------------------|
--7-7-7-7-7--7-7-7-7-7-7-7-7-7-7-|
--0-0-0-0-0--0-0-0-0-0-0-0-0-0-0-|
---------------------------------|



----7-x/16--------------17-------17----17-----|-------------------|
----7-x/----------------17----17----17-17-----|-------------------|
----7-x/---x-x-19b19b20----19b------19b-------|-------------------|
--x--------x-x--------------------------------|--7----------------|
--x--------x-x----------------------------0-0-|--0----------------|
-----------x-x--------------------------------|-------------------|



------------------|------------------|------------------|
------------------|------------------|------------------|
------------------|------------------|------------------|
------------------|------------------|------------------|
------------------|------------------|------------------|
------------------|------------------|------------------|



--------------------------------|--------------------------------|
--------------------------------|--------------------------------|
--9-9-9-9-9--9-9-9-9-9-9-9--9-9-|--9-9-9-9-9--9-9-9-9-9-9-9--9-9-|
--7-7-7-7-7--7-7-7-7-7-7-7--7-7-|--7-7-7-7-7--7-7-7-7-7-7-7--7-7-|
--7-7-7-7-7--7-7-7-7-7-7-7--7-7-|--7-7-7-7-7--7-7-7-7-7-7-7--7-7-|
--0-0-0-0-0--0-0-0-0-0-0-0--0-0-|--0-0-0-0-0--0-0-0-0-0-0-0--0-0-|



--------------------------------|--------------------------------|
--------------------------------|--------------------------------|
--9-9-9-9-9--9-9-9-9-9-9-9--9-9-|--9-9-9-9-9--9-9-9-9-9-9-9--9-9-|
--7-7-7-7-7--7-7-7-7-7-7-7--7-7-|--7-7-7-7-7--7-7-7-7-7-7-7--7-7-|
--7-7-7-7-7--7-7-7-7-7-7-7--7-7-|--7-7-7-7-7--7-7-7-7-7-7-7--7-7-|
--0-0-0-0-0--0-0-0-0-0-0-0--0-0-|--0-0-0-0-0--0-0-0-0-0-0-0--0-0-|



--------------------------------|--------------------------------|
--------------------------------|--------------------------------|
--9-9-9-9-9--9-9-9-9-9-9-9--9-9-|--9-9-9-9-9--9-9-9-9-9-9-9--9-9-|
--7-7-7-7-7--7-7-7-7-7-7-7--7-7-|--7-7-7-7-7--7-7-7-7-7-7-7--7-7-|
--7-7-7-7-7--7-7-7-7-7-7-7--7-7-|--7-7-7-7-7--7-7-7-7-7-7-7--7-7-|
--0-0-0-0-0--0-0-0-0-0-0-0--0-0-|--0-0-0-0-0--0-0-0-0-0-0-0--0-0-|



--------------------------------|--x\---x\---x\----------|
--------------------------------|--x\---x\---x\----------|
--9-9-9-9-9--9-9-9-9-9-9-9--9-9-|--x\---x\---x\-----7r-5-|
--7-7-7-7-7--7-7-7-7-7-7-7--7-7-|--x\---x\---x\----------|
--7-7-7-7-7--7-7-7-7-7-7-7--7-7-|------------------------|
--0-0-0-0-0--0-0-0-0-0-0-0--0-0-|------------------------|



-----------------------------|---------------------------|
-----------------------------|---------------------------|
-----x-x-7--6--5b----------x-|--------------7--8--9--x-x-|
--7--x-x----------x-5---5--x-|--7--------7-----------x-x-|
--0--------------------------|--0----5/7-----------------|
----------------------8b-----|---------------------------|



--------------------------|---------------------------|
--------------------------|---------------------------|
-----x-7--6--5---5--------|-----x-x--------7--5b------|
--7--x-----------------5--|--7--x-x-----7--------5b---|
--0-----------------------|--0------5/7---------------|
--------------------8b----|---------------------------|



------------------------------|--------------------------|
------------------------------|--------------------------|
--7--x-x-7--6--5b---------x-x-|------x--------7--8--9----|
--7--x-x----------x-5---5-x-x-|--7---x-5/7-7-------------|
--0---------------------------|--0-----5/7---------------|
----------------------8-------|--------------------------|



----------------------------|---------------------------|
----------------------------|---------------------------|
-----x-7--6--5b-x-----------|------x--------7--5b-----x-|
--7--x----------x-5------5--|--7---x-----7--------5---x-|
--0-------------------------|--------5/7----------------|
---------------------8-x----|---------------------------|



----------------------------|----------------------------|
----------------------------|----------------------------|
------x-7--6--5b------------|-----x-x--------7--8--9---x-|
--7---x----------x-5---5--x-|--7--x-------7------------x-|
--x-------------------------|--0------5/7-0--------------|
---------------------8------|----------------------------|



----------------------------|---------------------------|-------------------|
----------------------------|---------------------------|-------------------|
-----x-7--6--5--x-----------|-----x-x--------7--5b------|-------------------|
--7--x----------x-5------5--|--7--x-x-----7--------5----|--7----------------|
--0-------------------------|--0------5/7-0--------0----|--0----------------|
---------------------8-x----|---------------------------|--0----------------|



------------------|------------------|------------------|
------------------|------------------|------------------|
------------------|------------------|------------------|
------------------|------------------|------------------|
------------------|------------------|------------------|
------------------|------------------|------------------|



--------------------------------|--------------------------------|
--------------------------------|--------------------------------|
--9-9-9-9-9--9-9-9-9-9-9-9--9-9-|--9-9-9-9-9--9-9-9-9-9-9-9--9-9-|
--7-7-7-7-7--7-7-7-7-7-7-7--7-7-|--7-7-7-7-7--7-7-7-7-7-7-7--7-7-|
--7-7-7-7-7--7-7-7-7-7-7-7--7-7-|--7-7-7-7-7--7-7-7-7-7-7-7--7-7-|
--0-0-0-0-0--0-0-0-0-0-0-0--0-0-|--0-0-0-0-0--0-0-0-0-0-0-0--0-0-|



--------------------------------|------------------------------12-|
--------------------------------|------------------------------12-|
--9-9-9-9-9--9-9-9-9-9-9-9--9-9-|--9-9-9--9-9-------------14b-----|
--7-7-7-7-7--7-7-7-7-7-7-7--7-7-|--7-7-7--7-7---------------------|
--7-7-7-7-7--7-7-7-7-7-7-7--7-7-|--7-7-7--7-7---------5-----------|
--0-0-0-0-0--0-0-0-0-0-0-0--0-0-|--0-0-0--0-0-7-0-5-7---0---------|



-----------------------------|---------------------------|
-----------------------------|---------------------------|
-----x-x-7--6--5b----------x-|--------------7--8--9--x-x-|
--7--x-x----------x-5---5--x-|--7--------7-----------x-x-|
--0--------------------------|--0----5/7-----------------|
----------------------8b-----|---------------------------|



--------------------------|---------------------------|
--------------------------|---------------------------|
-----x-7--6--5---5--------|-----x-x--------7--5b------|
--7--x-----------------5--|--7--x-x-----7--------5b---|
--0-----------------------|--0------5/7---------------|
--------------------8b----|---------------------------|



------------------------------|--------------------------|
------------------------------|--------------------------|
--7--x-x-7--6--5b---------x-x-|------x--------7--8--9----|
--7--x-x----------x-5---5-x-x-|--7---x-5/7-7-------------|
--0---------------------------|--0-----5/7---------------|
----------------------8-------|--------------------------|



----------------------------|---------------------------|
----------------------------|---------------------------|
-----x-7--6--5b-x-----------|------x--------7--5b-----x-|
--7--x----------x-5------5--|--7---x-----7--------5---x-|
--0-------------------------|--------5/7----------------|
---------------------8-x----|---------------------------|



----------------------------|----------------------------|
----------------------------|----------------------------|
------x-7--6--5b------------|-----x-x--------7--8--9---x-|
--7---x----------x-5---5--x-|--7--x-------7------------x-|
--x-------------------------|--0------5/7-0--------------|
---------------------8------|----------------------------|



----------------------------|---------------------------|
----------------------------|---------------------------|
-----x-7--6--5--x-----------|-----x-x--------7--5b------|
--7--x----------x-5------5--|--7--x-x-----7--------5----|
--0-------------------------|--0------5/7-0--------0----|
---------------------8-x----|---------------------------|



--------------8----8----8-----|-------------17-17-17--20-20-20-20-20\-|
--------------11b--11b--11b---|-------------17-17-17--20-20-20-20-20\-|
--------------11b--11b--11b---|---------5---17-17-17--20-20-20-20-20\-|
--0-7-----7-7-----------------|--7--0-7-5-7---------------------------|
--0-0-7-7-0-0-----------------|--0--0-0---0---------------------------|
------5-5---------------------|---------------------------------------|



-------------8----8----8-----|-----------17-17-17-17-17-20-20-20-20\----|
-------------11b--11b--11b---|-----------17-17-17-17-17-20-20-20-20\----|
---------5---11b--11b--11b---|-----------17-17-17-17-17-20-20-20-20\----|
--7--7-----7-----------------|--7--7---x/---------------------------7---|
--0--0-0---7-----------------|--0--0-7-x/-----------------------------7-|
-----------------------------|-------5----------------------------------|



--------------8----8----8-----|-------------17-17-17--20-20-20-20-20\-|
--------------11b--11b--11b---|-------------17-17-17--20-20-20-20-20\-|
--------------11b--11b--11b---|---------5---17-17-17--20-20-20-20-20\-|
--0-7-----7-7-----------------|--7--0-7-5-7---------------------------|
--0-0-7-7-0-0-----------------|--0--0-0---0---------------------------|
------5-5---------------------|---------------------------------------|



-------------8----8----8-----|-----------17-17-17-17-17-20-20-20-20\----|
-------------11b--11b--11b---|-----------17-17-17-17-17-20-20-20-20\----|
---------5---11b--11b--11b---|-----------17-17-17-17-17-20-20-20-20\----|
--7--7-----7-----------------|--7--7---x/---------------------------7---|
--0--0-0---7-----------------|--0--0-7-x/-----------------------------7-|
-----------------------------|-------5----------------------------------|



------------------------|------------------|------------------------|
------------------------|------------------|------------------------|
-----x---7--6--5~-------|------------------|-----x-x-7--6--5--------|
--7--x-0----------------|------------------|--7--x-x----------------|
--0---------------------|------------------|--0---------------------|
------------------------|------------------|------------------------|



-------------------|---------10--9--8--------|------------------|
-------------------|-------------------------|------------------|
-------------------|-----x-x-7---6--5--------|------------------|
-------------------|--7--x-x-----------------|------------------|
-------------------|--0----------------------|------------------|
----------------0--|-------------------------|------------------|



------------------------|--------------------------|
------------------------|----------8-8---8-8---8---|
-----x-x-7--6--5--------|--------------5-----5---5-|
--7--x-x----------------|--------------------------|
------------------------|--------------------------|
------------------------|--------------------------|



--------------------------------------|----------------------8/---------------|
--------------------------------------|----------------------8/---------------|
--------------------------------------|-------------------------------17-17---|
-----7--x-12-12-11-10--10-10-10--10---|--------x-x-12-11-10-----------17-17---|
--7--7--x-12-12-11-10--10-10-10--10-0-|--7--7--x-x-12-11-10-----10/15---------|
--5--5--x-10-10-9--8---8--8--8---8--0-|--5--5--x-x-10-9--8------------------0-|



---------------------------------------|-------------------------------------|
---------------------------------------|-------------------------------------|
---------------------------------------|----------x--------------------------|
---------x-x-12-11-10--10-10-10/12-12--|----------x-12-11-10-x-x---11-10-----|
--7-7-7--x-x-12-11-10--10-10-10/12-12--|--7--7--7-x-12-11-10-x-x---11-10-----|
--5-5-5--x-x-10-9--8---8--8--8/-10-10--|--5--5--5-x-10-9--8------0-9--8--0-0-|



--------------------------------------|----------------------8/---------------|
--------------------------------------|----------------------8/---------------|
--------------------------------------|-------------------------------17-17---|
-----7--x-12-12-11-10--10-10-10--10---|--------x-x-12-11-10-----------17-17---|
--7--7--x-12-12-11-10--10-10-10--10-0-|--7--7--x-x-12-11-10-----10/15---------|
--5--5--x-10-10-9--8---8--8--8---8--0-|--5--5--x-x-10-9--8------------------0-|



----------------------------------|--------------------------------------|
----------------------------------|--------------------------------------|
----------------------------------|--------------------------------------|
--------x-x-12-11-10--10----------|--------x-12-12-11-10--10-10-10-10--7-|
--7--7--x-x-12-11-10--10--------0-|--7--7--x-12-12-11-10--10-10-10-10--7-|
--5--5--x-x-10-9--8---8--0-3b-0---|--5--5--x-10-10-9--8---8--8--8--8---5-|



-------------------------------|--------------------|------------------||
--------5----------------------|---------------5----|------------------||
--------5b----5b---5b----------|---------------5----|------------------||
-----------------7----7--7--7--|--7------------7----|------------------||
--7--7----0-0---------7--7--7--|--7-----------------|------------------||
--5--5----------------5--5--5--|--5-----------------|------------------||

Copyrights
Author: ?
Composer: ?
Publisher: ?
More details
Language: English

Reactions

CommonCrawl [Bot]

Follow Muzikum