Red Hot Chili Peppers
Scar Tissue Ver 5 (Guitar tab)

[Some of] This TAB transcription was created using TAB MASTER version 1.0
If you enjoy using this program, please consider telling the author
about it: Ofir Zwebner, e-mail: ofirz1@ccsg.tau.ac.il
snail-mail: Ehoud 10, Tel Aviv, 69936, Israel

This program is freeware, but it took me some work to make it, so
your financial contribution is welcome.

--------------------------------------------------------------------
Tabbed by: Ocine - artdt@yahoo.com
-----------------------------------

Scar Tissue
Red Hot Chili Peppers
Californication


This is my first tab, so feel free to mail me any corrections or comments.
I have tried to tab John's solos exactly as he plays them on MTV. (Getting the
right string & fret, not just the right note.)


Intro [00:00]

e:----------------------------------------------------------------|
B:----10----10---10---10------------------------------------------|
G:-------------------------9--9/10--10-----10----10------10p9-----|
D:----------------------------------------------------------------|
A:-8------8----8----8---------------------------------------------|
E:-------------------------8--8/10------10----10----10--------8---|

. .
e:--------------------------------------------------|
B:----10----10---10---10---8------------------------|
G:------------------------------9/10--12p10--12p12--|
D:--------------------------------------------------|
A:-8------8----8----8----8--------------------------|
E:------------------------------8/10----------------|


Verse 1 [00:11]

e:-------------------------8----------------------------------------|
B:----10-10----10----10---------------------------------------------|
G:----------------------------9--9/10--10-----10----10-----10p9-----|
D:------------------------------------------------------------------|
A:-8--------8-----8-----8-------------------------------------------|
E:----------------------------8--8/10------10----10----10--------8--|

. .
e:---------------------------8-------------------------------|
B:----10-10----10-----10-----------8/10--10-----10-----------|
G:-------------------------------------------------12-10--9--|
D:-----------------------------------------------------------|
A:-8--------8------8------8----------------------------------|
E:---------------------------------8/10------10--------------|


Chorus [00:21]


During the chorus, play the chords F, C and Dm. Play them like this:

F - x 8 10 10 10 8
C - 8 10 10 9 8 8
Dm - 10 12 12 10 10 10

F C
With the birds I'll share this lo -
e:||---8-----8---8---8---8---8---8---8-----8--|
B:||--10----10--10--10--10--10--10--10-----9--|
G:||*-10----10--10--10--10--10--10--10-----8--|
D:||*-10----10--10--10--10--10--10--10----10--|
A:||---8-----8---8---8---8---8---8---8----10--|
E:||---------------------------------------8--|

Dm C
nely view
e:----10----10--10--10--10--10--10--10-----8---||
B:----10----10--10--10--10--10--10--10-----8---||
G:----10----10--10--10--10--10--10--10-----9--*||
D:----12----12--12--12--12--12--12--12----10--*||
A:----12----12--12--12--12--12--12--12----10---||
E:----10----10--10--10--10--10--10--10-----8---||


Verse 2 [00:32]

e:-------------------------------------------------------------------------|
B:----10-----10-----10-10----10--------------------------------------------|
G:-------------------------------9--9/10--10------10------10------10p9-----|
D:-------------------------------------------------------------------------|
A:-8------8------8--------8------------------------------------------------|
E:-------------------------------8--8/10------10------10------10--------8--|

. . . . . .
e:---------------------------10-8---------------13-12---------|
B:----10-10----10-----10-----------8/10--10------------10--8--|
G:------------------------------------------------------------|
D:------------------------------------------------------------|
A:-8--------8------8------8-----------------------------------|
E:---------------------------------8/10------10---------------|


Chorus [00:43]


Chorus part A:

This is the same as the chorus above, except that the last C is
not played the second time.

F C
With the birds I'll share this lo -
e:||---8-----8---8---8---8---8---8---8-----8--|
B:||--10----10--10--10--10--10--10--10-----9--|
G:||*-10----10--10--10--10--10--10--10-----8--|
D:||*-10----10--10--10--10--10--10--10----10--|
A:||---8-----8---8---8---8---8---8---8----10--|
E:||---------------------------------------8--|

Dm C
nely view 1. 2.
e:----10----10--10--10--10--10--10--10--|--8--|-----||
B:----10----10--10--10--10--10--10--10--|--8--|-----||
G:----10----10--10--10--10--10--10--10--|--9--|----*||
D:----12----12--12--12--12--12--12--12--|-10--|----*||
A:----12----12--12--12--12--12--12--12--|-10--|-----||
E:----10----10--10--10--10--10--10--10--|--8--|-----||


Chorus part B:

Before the solos, With the birds... is sung 3 times. The third time, play
this:

[00:53]

F F Dm
With the... share this lonely view
e:---8-----8---8---8-----------8----10----------|
B:--10----10--10--10-----------8----10----------|
G:--10----10--10--10-----------9----10----------|
D:--10----10--10--10----------10----12----------|
A:---8-----8---8---8----------10----12----------|
E:-----------------------------8----10----------|


Solo 1 [00:58]

The solos are played with a slide.


e:---8\5--5---(5)\----5\3--3---3/5--5---5/7--7/8-8--|
B:--------------------------------------------------|
G:--------------------------------------------------|
D:--------------------------------------------------|
A:--------------------------------------------------|
E:--------------------------------------------------|


Verse 3 [01:10]

e:------------------------------------------------------------------------------|
B:----10-----10-----10-----8h10p8-----------------------------------------------|
G:---------------------------------9--9/10--10------10--10--10--12p10-12p10--9--|
D:------------------------------------------------------------------------------|
A:-8------8------8------8-------------------------------------------------------|
E:---------------------------------8--8/10------10---------------------------8--|

. . . . .
e:-------------------------8-----------------------------------|
B:----10-----10-----10--------8-8---8/10--10------12-13-12-10--|
G:------------------------------------------------12-12-12-10--|
D:-------------------------------------------------------------|
A:-8------8------8------8--------------------------------------|
E:----------------------------------8/10------10---------------|

Chorus [01:20]

Play chorus part A.

Verse 4 [01:32]

e:-------------------------8--------------------------------------------|
B:----10-----10-----10--------------------------------------------------|
G:----------------------------9--9/10--10------10------10------10p9-----|
D:----------------------------------------------------------------------|
A:-8------8------8------8-----------------------------------------------|
E:----------------------------8--8/10------10------10------10--------8--|

. . . .
e:--------------------------8------------------13-12-10-8--|
B:-----10-----10-----10--------8--8/10--10-----------------|
G:---------------------------------------------------------|
D:---------------------------------------------------------|
A:--8------8------8------8---------------------------------|
E:-----------------------------8--8/10-----10--------------|


Chorus [01:42]


Chorus part C:

Dm is continued being strummed the second time.

F C
With the birds I'll share this lo -
e:||---8-----8---8---8---8---8---8---8-----8--|
B:||--10----10--10--10--10--10--10--10-----9--|
G:||*-10----10--10--10--10--10--10--10-----8--|
D:||*-10----10--10--10--10--10--10--10----10--|
A:||---8-----8---8---8---8---8---8---8----10--|
E:||---------------------------------------8--|

Dm C Dm
nely view 1. 2.
e:----10----10--10--10--10--10--10--10-|---8--|-10--10--||
B:----10----10--10--10--10--10--10--10-|---8--|-10--10--||
G:----10----10--10--10--10--10--10--10-|---9--|-10--10-*||
D:----12----12--12--12--12--12--12--12-|--10--|-12--12-*||
A:----12----12--12--12--12--12--12--12-|--10--|-12--12--||
E:----10----10--10--10--10--10--10--10-|---8--|-10--10--||

After part C, play chorus part B.


Solo 2

[01:58]

Dm C Dm
e:--/10---10\8-8\5-5---5\3--3----8\5--5--|
B:---------------------------------------|
G:---------------------------------------|
D:---------------------------------------|
A:---------------------------------------|
E:---------------------------------------|

[02:09]
Dm C Dm
e:--/10---12--8\5-5---/8\3--3----8\5--5----10/12-12/13--13--|
A:----------------------------------------------------------|
G:----------------------------------------------------------|
D:----------------------------------------------------------|
A:----------------------------------------------------------|
E:----------------------------------------------------------|

During the 2nd solo, another guitar plays this. Play it freely.

Dm
e:||----------------------------------------------------------------|
B:||----------------------------------------------------------------|
G:||*---7-----7-----7---7-----7-----7-----7---7-----7---7-----7---7-|
D:||*-------7---------------7-----------7-------------------7-------|
A:||--5---5-------5---5---5-------5---5-----5-----5---5---5-----5---|
E:||----------------------------------------------------------------|

C Dm
e:-----------------------------------------------------------------||
B:-----------------------------------------------------------------||
G:------5---5-----5---5-----5----5-----7---7-----7---7-----7---7--*||
D:----5-------------------5----------7-------------------7--------*||
A:--3-----3-----3---3---3-----3----5-----5-----5---5---5-----5-----||
E:-----------------------------------------------------------------||

I have also put chords over the solo, so you can see where it changes.


Verse 5 [02:20]


e:----------------------------------------------------------------------|
B:----10-----10-----10-----10-----------10------10------10------10---8--|
G:-----------------------------9--9/10----------------------------------|
D:----------------------------------------------------------------------|
A:-8------8------8------8-----------------------------------------------|
E:-----------------------------8--8/10------10------10------10-------8--|


e:----------------------------8--------------------------------|
B:-8/10---10-----10-----10----8--8--8/10--10------10-----------|
G:------------------------------------------------10--12-10-9--|
D:----------------------------------------------------12-10-9--|
A:-------------------------------------------------------------|
E:-8/10-------8------8-----8-----8--8/10------10---------------|


Chorus [02:31]

Play chorus part C and B


Solo 3 [02:47]

e:--/17--17\15-15----15/17\12-12---12/13\10---(10)\8--8/10-10\8-8/10--10-|
B:-----------------------------------------------------------------------|
G:-----------------------------------------------------------------------|
D:-----------------------------------------------------------------------|
A:-----------------------------------------------------------------------|
E:-----------------------------------------------------------------------|

e:--10\8-8\5----5/8\3-3--/8\5--------------------------------|
B:-------------------------------3/5\3----/10-10--10--10--10-|
G:-----------------------------------------------------------|
D:-----------------------------------------------------------|
A:-----------------------------------------------------------|
E:-----------------------------------------------------------|

e:-----------------------------------------------|
B:-------------------------------/10---18\17-17--|
G:---/9\7---7/9\5--5---5/7--2--------------------|
D:-----------------------------------------------|
A:-----------------------------------------------|
E:-----------------------------------------------|


e:---------------------------------------|
B:-/13-(13)/15\10-10---(10)/13\8---8/10--|
G:---------------------------------------|
D:---------------------------------------|
A:---------------------------------------|
E:---------------------------------------|

I you want to play the it like John does on the video, use this ending
instead. It sounds the same, it is just harder to play.

e:-6/8-13/15\--5--(5)/8\3---3/5--|
B:-------------------------------|
G:-------------------------------|
D:-------------------------------|
A:-------------------------------|
E:-------------------------------|


Lyrics

Intro

����� Scar tissue that I wish you saw
Sarcastic mister know it all
����� Close your eyes and I'll kiss you �cause
���� With the birds I�ll share

Chorus

���� With the birds I�ll share
� ���� This lonely view
�� ��� With the birds I�ll share
��� �� This lonely view

����� Push me up against the wall
����� Young Kentucky girl in a push-up bra
����� Fallin� all over myself
����� To lick your heart and taste your health �cause

Chorus (before solo)

���� With the birds I�ll share
� ���� This lonely view
���� With the birds I�ll share
� ���� This lonely view
���� With the birds I�ll share
� ���� This lonely view

Solo 1

����� Blood loss in a bathroom stall
����� Southern girl with a scarlet drawl
����� Wave good-bye to ma and pa �cause
����� With the birds I�ll share

Chorus
������������
����� Soft spoken with a broken jaw
������Step outside but not to brawl
������Autumn�s sweet we call it fall
I�ll make it to the moon if I have to crawl, and
������
Chorus (before solo)

Solo 2
�����
����� Scar tissue that I wish you saw
���� Sarcastic mister know it all
����� Close your eyes and I�ll kiss you �cause
����� With the birds I�ll share

Chorus (before solo)

Solo 3

-----------------------------------
Tabbed by: Ocine - artdt@yahoo.com

Copyrights
Author: ?
Composer: ?
Publisher: ?
More details
Language: English

Reactions

CommonCrawl [Bot]

Follow Muzikum