Red Hot Chili Peppers
Cabron (Guitar chord)

From: "stephen constantine"
From: "Ross Kelly"
Subject: r/red_hot_chili_peppers/cabron.crd
Date: Sat, 08 Jun 2002 01:27:25 +0100

Artist: RED HOT CHILI PEPPERS
Song: CABRON

Not finished, hopefully someone else will get the whole song tabbed. It
sounds pretty OK to me, and yes it is supposed to say cabron.

[capo 7th fret]


INTRO

||-3---0-
||-3---0-
||-4---0-
||-5---2-
||-5---2-
||-3---0- x2
C D
||--------3-------|-2-------------|
||--1-------1-----|-3-------------|
||----0-----0---0-|-2-------------|
||2-----2-----2---|---------------|
||3---------------|---------------|
||----------------|---------------|


Main Riff
G
||-------------|-3--3--3--3--3--3-|
||0------------|-0--0--0--0--0--0-|
||--2--0-----0-|-0--0--0--0--0--0-|
||--------2----|-0--0--0--0--0--0-|
||-------------|-2--2--2--2--2--2-|
||-------------|-3--3--3--3--3--3-|

E
||-------------|-0--0--0--0--0--0-|
||0------------|-0--0--0--0--0--0-|
||--2--0-------|-1--1--1--1--1--1-|
||--------2----|-2--2--2--2--2--2-|
||-----------2-|-2--2--2--2--2--2-|
||-------------|-0--0--0--0--0--0-|

"enjoy"

Copyrights
Author: ?
Composer: ?
Publisher: ?
More details
Language: English

Reactions

CommonCrawl [Bot]

Follow Muzikum