Red Hot Chili Peppers
My Lovely Man (Guitar tab)

From: "Avishay Drori"
Subject: r/red_hot_chili_peppers/my_lovely_man.tab
Date: Wed, 15 May 2002 17:56:28 +0200

Transcription By Avishay Drori

Song name - My Lovely Man=20
Artist - Red Hot Chili Peppers
Album - Blood Sugar Sex Magic

nice song - not very hard

-------------------------------------------------------------------------=
------------------

INTRO

E-------------------------------|---------------------------|
B-------------------------------|---------------------------|
G----------------------7-4------|---------------------------|
D-------------7-5-7/9-------7h5-|---------------------------|
A-7-5-7-5-7-5-------------------|-7-5-7-5-7-5-0---2-5-2h0---|
E-------------------------------|---------------3---------3-|=20

-----------------------------------------------------------------------

VERSE (when he starts singing)

E-------------------------------|---------------------------|
B-------------------------------|---------------------------|
G----------------------7-4------|---------------------------|
D-------------7-5-7/9-------7h5-|---------------------------|
A-7-5-7-5-7-5-------------------|-7-5-7-5-7-5-0---2-5-2h0---|
E-------------------------------|---------------3---------3-|


E-------------------7-10-7------|---------------------------|
B--------------10-8--------10h8-|-------------------3-------|
G-------------------------------|-9-7-9-7-9-7-2-0-4---4h2h0-|
D-------------------------------|---------------------------|
A-7-5-7-5-7-5-------------------|---------------------------|
E-------------------------------|---------------------------|

--------------------------------------------------------------------
At 0:25 you play this:

E-----------------------------------------------------------|
B-----------------------------------------------------------|
G-----------------------------------------------------------|
D--------------------------6--4--6--4--6--4--6--4-----------|
A--7--5--7--5--7--5--7--5-----------------------------------|
E-----------------------------------------------------------|


After this you repeat the verse and then go to chorus.

-------------------------------------------------------------------------=
----------------

Chorus 4X


E------5--------5---5-5-----7-------7---7---|
B------5--------5---5-5-----7-------7---7---|
G------5--------5---5-5-----7-------7---7---|
D--5/7----5/7-7---7-----7/9---7/9-9---9-----|
A-------------------------------------------|
E-------------------------------------------|

E-----9-7---9-7---------9-7-----9-7-|
B-----9-7---9-7---------9-7-----9-7-|
G-7h9-----9-----7h9h7h9-----7h9-----|
D-----------------------------------|
A-----------------------------------|
E-----------------------------------|=20


-------------------------------------------------------------------------=
---------------

SOLO (2:19)

The solo is not excatly accurate because i was too lazy to write the =
notes, but it's good enough.


E--7-7-7-7-7--5h7--7-7-7-7-7--5h7--10-10-10-10-10-|
B-------------------------------------------------|
G-------------------------------------------------|
D-------------------------------------------------|
A-------------------------------------------------|
E-------------------------------------------------|

E-7h5h7-7-7-7-7-7-5-5-----------------------------------------------|
B--------------------8-8-8-5-5-8-5-8-5-5-5-5-5----------------------|
G----------------------------------------------7-7-7-7-7--6-6-6-6-6-|
D-------------------------------------------------------------------|
A-------------------------------------------------------------------|
E-------------------------------------------------------------------|

E--12-12-12-12-12-------------10-10-10-10-------------|
B--12--------------10h8-10/12--------------10h8-10/12-|
G-----------------------------------------------------|
D-----------------------------------------------------|
A-----------------------------------------------------|
E-----------------------------------------------------|

E-10-10-10-10-------------10-10-10-10-|
B--------------10h8-10/12-------------|
G-------------------------------------|
D-------------------------------------|
A-------------------------------------|
E-------------------------------------|

-------------------------------------------------------------------------=
------------------
this part 4x
E---------------10----------|
B--8h10h8-10/12----12\10h8--|
G---------------------------|
D---------------------------|
A---------------------------|
E---------------------------|

-------------------------------------------------------------------------=
-------------------

E---------------10----10----10----10----10---|
B--8h10h8-10/12----12----12----12----12------|
G--------------------------------------------|
D--------------------------------------------|
A--------------------------------------------|
E--------------------------------------------|

E----12----12----12----15-15--|
B-14----14----14----14--------|
G-----------------------------|
D-----------------------------|
A-----------------------------|
E-----------------------------|

E-15h12----12--19-19h17-15-17--19-18-18-18----17----|
B-------15---------------------------------20----20-|
G---------------------------------------------------|
D---------------------------------------------------|
A---------------------------------------------------|
E---------------------------------------------------|

-------------------------------------------------------------------------=
-----------------------

/ =3D slide up
\ =3D slide down
h =3D hammer down

Transcription By Avishay Drori

Music By Anthony Kiedis, Micheal Balzary, Chad Smith, and John =
Frusciante


This is my first tab so i hope i got it right...

Enjoy...

Copyrights
Author: ?
Composer: ?
Publisher: ?
More details
Language: English

Reactions

CommonCrawl [Bot]

Follow Muzikum