Red Hot Chili Peppers
Other Side (Bass tab)

From: "Runar Maeland"
Date: Fri, 28 Dec 2001 07:12:35 +0800
Subject: r/red_hot_chili_peppers/other_side.btab

Song: Other Side
Album: Californication
Artist: Red Hot Chili Peppers
Tabbed by: Runar B. Maeland (runar@india.com)

An update to my previous file. Replace it, this one is correct.
The bridge was wrong, but now it's correct(fanx Spinder), and some
notes on the outtro was uncorrect.
\ =slide. ' =hammer on
Intro:
G -----------------------------------------
D -----------------------------------------
A ---------------------3--3-3-3------------
E -5--5-5-3--1--1-1-1-----------0'3--3-3-3-

Chorus 1
G ------------------------------------------
D ------------------------------------------
A ----------------------3--3-3-3----3-2-----
E -5--5-5-3--1--1-1-1-1---------0'3-----3---

G -------------------------------------------
D -------------------------------------------
A ----------------------3--3-3-3--------5----
E -5--5-5-3--1--1-1-1-1----------0'3------3--

G ------------------------------------------
D ------------------------------------------
A ----------------------3--3-3--------------
E -5--5-5-3--1--1-1-1-1---------0-3--3-3----

Verse:
Part one
G ----------------------------\
D ---------------------------- \
A -0-0-0-0--0-0-0\-7-7-7--7-7\ / Repeat 3 times
E ----------------------------/
Part two
G ----------------------------
D ----------------------------
A ----------------------------
E -3------------5-------------
Repeat part one.
Repeat part two twice.
Part three
G -----------------------------------------------
D -----------------------------------------------
A -----------------------------------------------
E -3--3-3-3---3--3-3-3--5--5-5-5-5-0-5-0-5-0-5-0-

Chorus 2:
G ------------------------------------------
D ------------------------------------------
A ----------------------3--3-3-3------------
E -5--5-5-3--1--1-1-1-1---------0'3--3-3-3--

G -------------------------------------------
D -------------------------------------------
A ----------------------3--3-5-3-----3-2-----
E -5--5-5-3--1--1-1-1-1----------0'3------3--

G ------------------------------------------
D ------------------------------------------
A ----------------------3--3-3--------------
E -5--5-5-3--1--1-1-1-1---------0'3--3-3----

Reapeat verse
Chorus 3:
G ------------------------------------------
D ------------------------------------------
A ----------------------3--3-3-3-------32---
E -5--5-5-3--1--1-1-1-1---------0'3--3---3--

G -------------------------------------------
D -------------------------------------------
A ----------------------3--3-3-3-----3-2-5---
E -5--5-5-3--1--1-1-1-1----------0'3---------

G ------------------------------------------
D ------------------------------------------
A ----------------------3--3-3--------------
E -5--5-5-3--1--1-1-1-1---------0'3-3-3-3---

Bridge:
Part one
G ----------------------------------------
D ----------------------------------------
A ---7-5-7---7-57-----------------10-9----
E -0-------0------0-5-7-8-8-7-8-8------10-

G -------------------------------------------------
D -------------------------------------------------
A ---7-5-7---7-57-----------------10-9-7-9-10-7----
E -0-------0------0-5-7-8-8-7-8-8---------------10-

Repeat part 1 twice.

Outtro:
G ----------------------------------------------
D ----------------------------------------------
A -----------------------33333333------------32-
E -5-5-5-5-3-1-1-1-1-1-1---------0'3-3-3-3-3---3

G -------------------------------------------
D -------------------------------------------
A ----------------------3--3-3-3-------------
E -5--5-5-3--1--1-1-1-1----------0'3-3-3-3-3-

G ---------------------------------------------
D -----------3-3-3-3-3-5-3---------------------
A -------------------------3--3-3-5-3-----3-2--
E -5-5-5-5-5--------------------------1-3-----3

G -------------------------------------------------
D -------------------------------------5-5-5-------
A ----------------------3--3-3-3-------------------
E -5--5-5-3--1--1-1-1-1----------0'3-3-------0-1-3-

G -------------------------------------------
D -------------------------------------------
A ----------------------3--3-3-3-------------
E -5--5-5-3--1--1-1-1-1----------0'3-3-0-1-3-

G -----------------------------5-5-5-5-5-7-0-0-0-0-3-5----
D ---------------3-3-3-3-3-3-3----------------------------
A -----------3-5----------------------------------------0-
E -5-5-5-5-5----------------------------------------------

Questions, corrections or comments, mail me.

Runar BM, runar@india.com
finsihed 27.12 2001 18.15 in Stord, Norway.

Copyrights
Author: ?
Composer: ?
Publisher: ?
More details
Language: English

Reactions

CommonCrawl [Bot]

Follow Muzikum