Red Hot Chili Peppers
This Velvet Glove (Guitar tab)

From: "Runar Maeland"
Date: Sun, 23 Dec 2001 02:05:42 +0800
Subject: r/red_hot_chili_peppers/this_velvet_glove.tab

Song: This Velvet Glove
Artist: Red Hot Chili Peppers
Album: Californication
Tabbed by Runar B.Maeland (runar@india.com)
Guitar-tab

A correction to my old file. This one is more informative.
'=hammer on
Intro
e ------------------------------------------------
B ----1-3---1-3-------------1-3---1-3-------------
G -2------0--------------2------0-----------------
D --------------3-2-3-2---------------3-2-3-2-(3)-
A ------------------------------------------------
E --------------------------------------------

e -3--1-0----------5--3-0-------------
B ---------1-1'3----------1-3-3-3-33--
G ------------------------------------
D ------------------------------------
A ------------------------------------
E ------------------------------------

Verse 1
Part 1
e -5--5--5--5--5---10-10-5- Repeat 2 times, some variations
B -------------------------
G -------------------------
D -------------------------
A -------------------------
E -------------------------
"Close to my skin..."
Part 2
e -5-5--10-10-5-5--------10-10-5-5-5---10-10-5-
B ---------------------------------------------
G ---------------------------------------------
D ---------------------------------------------
A ---------------------------------------------
E ---------------------------------------------

Repeat intro, some variations: Only play fret 3 on D string, not
3 and 2. Not hammer on 3 fret on B string.

Verse 2
e -10-10-5---5--5--10-10-5- Repeat 2 times, short break, twice more
B -------------------------
G -------------------------
D -------------------------
A -------------------------
E -------------------------


Chorus:
e -12-10-10-12-12-10-10-17-15-17-15- Repeat 3 times
B ----------------------------------
G ----------------------------------
D ----------------------------------
A ----------------------------------
E ----------------------------------

e -12-10-10-12-12-10-10---10-10--10-10-
B -------------------------------------
G -------------------------------------
D -------------------------------------
A -------------------------------------
E -------------------------------------

Bridge?
e --------10-------------10-10-5-
B -10--13--------10--------------
G ------------12-----------------
D -------------------------------
A -------------------------------
E -------------------------------

Repeat verse 1

e --5-5--55-5--55--7-7-77-7-7--10-10--1010-10-10-12-12--1212--15-15-
B ------------------------------------------------------------------
G ------------------------------------------------------------------
D ------------------------------------------------------------------
A ------------------------------------------------------------------
E ------------------------------------------------------------------

Repeat chorus

Repeat chorus

Repeat bridge

Repeat verse 2

This is the correct way to play the song, I am about 99% sure.
But if you know otherwise, or have any comments or questions, mail me; runar@india.com.
There are some variations some places I haven't added, and some note spaces are incorrect, or at least unperfect. But you'll figure it out.
Enjoy!

17:59 17.12.2001, Stord, Norway

Copyrights
Author: ?
Composer: ?
Publisher: ?
More details
Language: English

Reactions

CommonCrawl [Bot]

Follow Muzikum