Rammstein
Zwitter Ver 4 (Guitar tab)

Author/Artist: Rammstein
Title: Zwitter
Album: Mutter
Transcribed by: Johnny Homicidal Maniac

There are three guitars in this song. Guitar 1 plays
the intro riff every time it appears in the song. Guitar 2
and Guitar 3 play the other riffs.

This song is in drop \"D\" tuning





-----------------------------------|-|----------------------------------------
-----------------------------------|-|----------------------------------------
-----------------------------------|-|----------------------------------------
-----------------------------------|-|----------------------------------------
-----------------------------------|-|----------------------------------------
-0-0-0-0-0-0-5-3-0-0-0-0-0-1-1-0---|-|----------------------------------------
Intro Riff(Gtr. 1)



-----------------------------------|-|----------------------------------------
-----------------------------------|-|----------------------------------------
---------------------------h-------|-|----------------------------------------
-------------5\\3----------0-1--1---|-|----------------------------------------
-------------5\\3----------0-1--1---|-|----------------------------------------
-0-0-0-0-0-0-5\\3--0-0-0-0-0-1--1---|-|----------------------------------------
p.m.-------| |-------| Verse Riff(Gtrs. 2 and 3)



------------------------------------------------------------------|-----------
------------------------------------------------------------------|-----------
-3-3-3-3-3-3-3-3--------------------------------------------------|-----------
-1-1-1-1-1-1-1-1-5-5-5-5-5-5-5-5-3-3-3-3-3-3-3-3-3-3-3-3------1-3-|-----------
-----------------3-3-3-3-3-3-3-3-1-1-1-1-1-1-1-1-1-1-1-1--1-3-----|-----------
------------------------------------------------------------------|-----------
Chorus Riff(Gtrs. 2 and 3)


-----------------------------------------------------------------|------------
-----------------------------------------------------------------|------------
-3-3-3-3-3-3-3-3-------------------------------------------------|------------
-1-1-1-1-1-1-1-1-5-5-5-5-5-5-5-5-5-5-5-5-5-5-5-5-5-5-5-5-5-5-5-5-|------------
-----------------3-3-3-3-3-3-3-3-5-5-5-5-5-5-5-5-5-5-5-5-5-5-5-5-|------------
---------------------------------5-5-5-5-5-5-5-5-5-5-5-5-5-5-5-5-|------------

Copyrights
Author: ?
Composer: ?
Publisher: ?
More details
Language: English

Reactions

CommonCrawl [Bot]

Follow Muzikum