Blue Öyster Cult
See You In Black (Guitar tab)

SEE YOU IN BLACK - Blue Oyster Cult (tabbed by Sean Kay)

Sorry but i didnt do Buck's lead parts. This is still loads of fun though.
Turn up the volume and distortion for this one.

/ = slide
. = palm mute

Riff 1
e|-----------------------
B|-----------------------
G|-----------------------
D|--2-22-2-22-2-22-2-3---
A|--2-22-2-22-2-22-2-3---
E|--0-00-0-00-0-00-0-1---
. . .
Riff 2
e|-----------------------------------------
B|-----------------------------------------
G|-----------------------------------------
D|--2-222222-5-555555-7-777777-4/5-4/5-----
A|--2-222222-5-555555-7-777777-4/5-4/5-----
E|--0-000000-3-333333-5-555555-2/3-2/3-----
...... ...... ......
Riff 3
e|-----------------------------------------
B|-----------------------------------------
G|-----------5-7-9-----------7-7-7---------
D|--2--4--5--5-7-9-7--9--10--7-7-7-2-------
A|--2--4--5--3-5-7-7--9--10--5-5-5-2-------
E|--0--2--3--------5--7---8--------0-------

Riff 4
e|-----------------------------------------
B|-----------------------------------------
G|-----------5-7-9-----------7-7-7---------
D|--2--4--5--5-7-9-7--9--10--7-7-7---------
A|--2--4--5--3-5-7-7--9--10--5-5-5---------
E|--0--2--3--------5--7---8----------------

Riff 5
e|-----------------------------------------
B|-----------------------------------------
G|--5-5-5-55-5-5-5-55-5-5-5-55-5-5-5555----
D|--5-5-5-55-5-5-5-55-5-5-5-55-5-5-5555----
A|--3-3-3-33-3-3-3-33-3-3-3-33-3-3-3333----
E|-----------------------------------------

Riff 6
e|----------------------------------------------------------------
B|----------------------------------------------------------------
G|----------------------------------------------------------------
D|--2-22-2-22-2-22-2-3-2-22-2-22-2-22-2-3-2-22-2-22-2-22-2-3-2----
A|--2-22-2-22-2-22-2-3-2-22-2-22-2-22-2-3-2-22-2-22-2-22-2-3-2----
E|--0-00-0-00-0-00-0-1-0-00-0-00-0-00-0-1-0-00-0-00-0-00-0-1-0----
. . . . . . . . .
Riff 1 x4
Riff 2 x6
Riff 3 x1
Riff 2 x6
Riff 4 x2
Riff 1 x4
Riff 2 x4
Riff 5 x1
Riff 2 x8
Riff 3 x2
Riff 6 x1

  • TAKAMINE

    Submitted by

    TAKAMINE at Thu 30 Oct, 2003 12:49 pm

  • <
Copyrights
Author: ?
Composer: ?
Publisher: ?
More details
Language: English

Reactions

CommonCrawl [Bot]

Follow Muzikum