Blue Öyster Cult
Burnin For You (Bass tab)

By Blue Oyster Cult
Tabbed by Dave L. (Dakewlguy1@aol.com)

Intro -
G ----------------------------------
D ----------------------------------
A ----------------------------------
E -1----------1----------1----------

Verse (also played during solo) -
G --------------------------------------------------------------
D --------------------------------------------------------------
A ---------------7-7-7-7-7-6-10-5-5-5-5-5-5-8-8-8-8-10-10-10-10-
E -5-5-5-5-5-4-7------------------------------------------------

G ----------------------------------------------------------
D ----------------------------------------------------------
A ---------------7-7-7-7-7-6-10-5-5-5-5-5-5-8-8-8-8-7-7-7-7-
E -5-5-5-5-5-4-7--------------------------------------------

Chorus -
G ---------------------------------------------------------
D ---------------------------------------------------------
A ---------------------------------------------------------
E -5-5-5-5--5-7--1-1-1-1--1-3--5-5-5-5--5-7--1-1-1-1--1-3--

G -------------------------------------------
D -------------------------------------------
A -------------------------------------------
E -5-7-3-3-1--5-7-3-3-1--3--5--8---3--5--8---

G -----------------------------------------
D -----------------------------------------
A -----------------------------------------
E -8-8-8-8-7-7-7-7-5-5-5-5-3-3-3-3-1-1-1-1-

G ---------------------------------------------------------
D ---------------------------------------------------------
A ---------------------------------------------------------
E -5-5-5-5--5-7--1-1-1-1--1-3--5-5-5-5--5-7--1-1-1-1--1-3--

G ---------------------------------------------------------
D ---------------------------------------------------------
A ---------------------------------------------------------
E -5-5-5-5--5-7--1-1-1-1--1-3--5-5-5-5--5-7--1-1-1-1--1-3--

G -----------------------
D -----------------------
A -----------------------
E -1----------1----------

Copyrights
Author: ?
Composer: ?
Publisher: ?
More details
Language: English

Reactions

CommonCrawl [Bot]

Follow Muzikum