Blue Öyster Cult

Blue Öyster Cult
Cities On Flame Ver 2 (Guitar tab)

Here is the beginning to "cities on flame" you can find the verse and
chorus anywhere, so dont be lazy. Here is the correct intro.

|------------------------------------------------------------------|
|------------------------------------------------------------------|
|------------------------------------------------------------------|
|---------------4--2--2---------------------4--2--2----------------|
|------------034-34-34-320---------------034-34-34-320-------------|
|--2-5-2-R--2-------------2-0--2-5-2-R--2-------------2-0----------|
*** ***
|------------------------------------------------------------------|
|------------------------------------------------------------------|
|--------4b5r4p2-4-4-2-4b--------------------------4b5r4-2-4-4-4-2-|
|---------------4-------------4--2--2---------------------4--------|
|--------------------------034-34-34-320---------------------------|
|--2-5-2------------------2-------------2-0--2-5-2-----------------|
***


thats the best i can think of for the intro, if u can understand that
it sounds exactly like the real song.
feel free to email me at sportsnut39@hotmail.com

p=pulloff
p.s.....just incase b=bend
r=bend release

OptimusPrime

Submitted by OptimusPrime at Sun 01 Dec, 2002 8:34 am

Author: ?
Composer: ?
Publisher: ?
Language: English

Reactions

CommonCrawl [Bot]

Follow Muzikum