Blue Öyster Cult

Blue Öyster Cult
Subhuman (Guitar tab)

Author/Artist: Blue Oyster Cult
Title: Subhuman
Album: Secret Treaties
Transcribed by: Gotcha
Email: gdrobnic@inet.hr

B.O.C. RULES

-|---1---3---5---3---|--1---3---5---3------------|----------------------------
-|---1---3---5---3---|--1---3---5---3---10-------|----------------------------
-|*--2---4---5---4--*|--2---4---5---4---9--------|*---------------------------
-|*--0---5---7---5--*|--0---5---7---5---7--------|*---------------------------
-|-------------------|---------------------------|---3h5--5--3h5--5--3h5--5---
-|-------------------|---------------------------|----------------------------


----------|--------1-------------|--------------------------------------------
----------|---7----1----7----10--|--------------------------------------------
---------*|---7----2----7----9---|--------------------------------------------
---------*|---5----0----5----7---|--------------------------------------------
----------|----------------------|--------------------------------------------
--3--5----|----------------------|--------------------------------------------


That's the rhythm.

The solo will be uploaded shortly.

I hope.

OptimusPrime

Submitted by OptimusPrime at Sun 01 Dec, 2002 8:34 am

Author: ?
Composer: ?
Publisher: ?
Language: English

Reactions

CommonCrawl [Bot]

Follow Muzikum