Blue Öyster Cult

Blue Öyster Cult
Burnin For You (Guitar tab)

#---------------------------------YOU BEST NOTE-------------------------------#



#---------------------------------YOU BEST NOTE-------------------------------#




Blue Oyster Cult

Burnin' For You

Transcribed by Brian S.



Intro : 2 Guitars


Guitar III (chords)
F(let ring throughout)

Guitar I
e--------------------|--------------------|
b-----------------5vv|vv------------------|
g---5---4--5p4-------|---5--4--5p4--------|
d--------------7-----|-------------7------|
a--------------------|--------------------|
e--------------------|--------------------|
Guitar II
e-----------------3vv|vv------------------|
b---5---3--5p3-------|---5--3--5p3--------|
g--------------5-----|-------------5------|
d--------------------|--------------------|
a--------------------|--------------------|
e--------------------|--------------------|

Right After Intro :

Interlude :
e----------------------------------------------------|
b---------13-p12----13-p12---------------------------|
g-12vvvvv--------12---------9-/12vvv--10-p9----------|
d-------------------------------------------12vvvvv--|
a----------------------------------------------------|
e----------------------------------------------------|

e-------------------------------------------------12--|
b-----12----------------------------------------------|
g--14----12vvvv----12-14----------------------14------|
d---------------14-------10vvvv--12--14-14/15---------|
a-----------------------------------------------------|
e-----------------------------------------------------|

e-------------15vvvv--|
b--15-----------------|
g------12--12---------|
d---------------------|
a---------------------|
e---------------------|

2nd Interlude (After Chorus and the Intro Rif) :
e-----------------------------------------------------------|
b----------13--12--13------------------/15--13--12--13--15--|
g--12vvvv--------------9--/14--12vvvv-----------------------|
d-----------------------------------------------------------|
a-----------------------------------------------------------|
e-----------------------------------------------------------|

e---------------------------13-----13-----------15vvvv--|
b----------15-b17r15----------13-----13-----------------|
g--12vvvv------------14vvvv-----14-----12--12-12--------|
d-------------------------------------------------------|
a-------------------------------------------------------|
e-------------------------------------------------------|

Solo is in the

A Pentatonic Minor...

OptimusPrime

Submitted by OptimusPrime at Sun 01 Dec, 2002 8:34 am

Author: ?
Composer: ?
Publisher: ?
Language: English

Reactions

CommonCrawl [Bot]

Follow Muzikum