Foo Fighters
M I A (Bass tab)

Song: M.I.A.
Artist: Foo Fighters
Album: There is nothing left to lose

Tabbed by Serena Di Iulio ICQ: 38559568
Member of the Bass Tab Archive Tabbing Army ~
http://www.basstabarchive.com



Verse:

G||------------------------|------------------------|
D||------------------------|------------------------|
A||--4--5--5----4--5--5----|------------------------|
E||------------------------|--3--3--3--3----3--3----|



------------------------|------------------------|
------------------------|------------------------|
--4--5--5----4--5--5----|------------------------|
------------------------|--3--3--3--3----3--3----|



------------------------|------------------------|
------------------------|------------------------|
--4--5--5----4--5--5----|------------------------|
------------------------|--3--3--3--3----3--3----|



-------------------------|----------------------|
-------------------------|----------------------|
-------------------------|----------------------|
--1--1--1--1----1--3--5--|------5--5----5--5----|




Chorus:


--------------------------|-------------------------|
--------------------------|-------------------------|
--5--5--5--5--------------|----------------------5--|
--------------3--3--3--3--|--6--6--6--5----5--5-----|



-------------------------|-------------------------|
-------------------------|-------------------------|
----5--5--5--------------|----------------------5--|
-------------3--3--3--3--|--6--6--6--5----5--5-----|



-------------------------|-------------------------|
-------------------------|-------------------------|
----5--5--5--------------|-------------------------|
-------------3--3--3--3--|--6--6--6--5----5--5--3--|



-------------------------|-------------------------|
-------------------------|-------------------------|
-------------------------|-------------------------|
----3--3---3-3--3--3---3-|--3--3--3---3-3--3--3----|


******************* play this only for the 1st chorus***
--------------------------|-------------------------|
--------------------------|-------------------------|
--5--5--5--5--5--5--5--5--|----------------------5--|
--------------------------|--1--1--1--5----5--5-----|


********************************************************
-------------------------|------------------------|
-------------------------|------------------------|
----5--5--5--5--5--5--5--|------------------------|
-------------------------|--1--1--1--5----5--5----|






Chorus 3:

x7
--------------------------|-------------------------|
--------------------------|-------------------------|
--5--5--5--5--------------|----------------------5--|
--------------3--3--3--3--|--6--6--6--5----5--5-----|


-------------------|------------------------|-------------------|
-------------------|------------------------|-------------------|
-------------------|------------------------|-------------------|
--3----------------|--6--6--6--5----5----3--|--3----------------|



------------------------|------------------||
------------------------|------------------||
------------------------|------------------||
--6--6--6--5----5----3--|------------------||




Verse
Chorus
Verse x2
Chorus
Verse
Chorus 3



If there's someone who knows the bass line of the middle part of the song, please email me.

Serena.

Copyrights
Author: ?
Composer: ?
Publisher: ?
More details
Language: English

Reactions

CommonCrawl [Bot]

Follow Muzikum