Foo Fighters

Foo Fighters
Everlong Ver 4 (Guitar tab)

-Foo Fighters-
-Everlong-


intro and verse
|--2---------|-----2------|-----3------|----2-------|
|--2---------|-----2------|-----3------|----2-------|
|--2---------|-----4------|------------|----2-------|
|--1---------|-----4------|------------|----1-------|
|--0---------|-----2------|------------|----0-------|
|--0---------|-----0------|-----3------|----0-------|



pre chorus
|------------|------------|------------|------------|
|------------|------------|------------|------------|
|------------|------------|------------|------------|
|-6--7---9---|-11--12-----|--7---9-----|------------|
|-4--5---7---|-9---10-----|--5---7-----|------------|
|------------|------------|------------|------------|


chorus
|------------|------------|------------|------------|
|------------|------------|------------|------------|
|------------|------------|------------|------------|
|------------|------------|-----7------|------------|
|--9---------|-----5------|-----5------|------------|
|--7---------|-----3------|------------|------------|


|------------|------------|------------|------------|
|------------|------------|------------|------------|
|------------|------------|------------|------------|
|------------|------------|-----7------|------------|
|--9---------|-----5------|-----5------|------------|
|--7---------|-----3------|------------|------------|


|------------|------------|------------|------------|
|------------|------------|------------|------------|
|------------|------------|------------|------------|
|------------|------------|-----7------|------------|
|--9---------|-----5------|-----5------|--7----5----|
|--7---------|-----3------|------------|--5----3----|


go to intro

(\_/)
(* *) cute little bunny
(")(")

OptimusPrime

Submitted by OptimusPrime at Sun 01 Dec, 2002 9:53 am

Author: ?
Composer: ?
Publisher: ?
Language: English

Reactions

CommonCrawl [Bot]

Follow Muzikum