Foo Fighters

Foo Fighters
Everlong Ver 2 (Guitar tab)

Author/Artist: Blink 182
Title: All the small things
Album: Enema of the state
Transcribed by: Tobin Olson
Email: Golsonfam@aol.com

I hope you like the tab. It is correct and it is a easy song.
Hope you like it. Comments email me at
Golsonfam4@aol.com

------------------------------------------------------------------------------
------------------------------------------------------------------------------
------------------------------------------------------------------------------
-------5-5-5-5-5-5-----10-10-10-10-10-10--------------------------------------
-------3-3-3-3-3-3-----8--8--8--8--8--8-----5-5-5-5-5-5---7-7-7-7---3-3-------
--------------------------------------------3-3-3-3-3-3---5-5-5-5---1-1-------
Play this twice through

------------------------------------------------------------------------------
------------------------------------------------------------------------------
------------------------------------------------------------------------------
-------------------------5-5-5------------------------------------------------
-------------------------3-3-3----5-5-5--3-3-3---5-5-5------------------------
----------------------------------3-3-3--1-1-1---3-3-3------------------------
mute all play it 6 times through

------------------------------------------------------------------------------
------------------------------------------------------------------------------
------------------------------------------------------------------------------
------------------------5-----------------------------------------------------
------------------------3--5--3-----------------------------------------------
---------------------------3--1-----------------------------------------------
play twice this is the in on in on in on on..........

------------------------------------------------------------------------------
------------------------------------------------------------------------------
------------------------------------------------------------------------------
------------------------------------------------------------------------------
------------------------------------------------------------------------------
------------------------------------------------------------------------------

OptimusPrime

Submitted by OptimusPrime at Sun 01 Dec, 2002 9:53 am

Author: ?
Composer: ?
Publisher: ?
Language: English

Reactions

CommonCrawl [Bot]

Follow Muzikum