Foo Fighters

Foo Fighters
All My Life Ver 3 (Guitar tab)

Artist: Foo Fighters
Song: All My Life
Album: One by One
Tabbed by: David
Email Me @: stupidpr@yahoo.co.uk

INTRO
Palm muted

e]-------------------------------
b]-------------------------------
g]-------------------------------
d]-------------------------------
a]-5-5--5-5--5-5--5-5------------
e]-3-3--3-3--3-3--3-3------------
Repeat this as many times as you need

VERSE

e]-------------------------------
b]-------------------------------
g]-------------------------------
d]-------------------------------
a]-5-5-5-5-5-5-5-5-5-5--8--------
e]-3-3-3-3-3-3-3-3-3-3--6--------


e]-------------------------------
b]-------------------------------
g]-------------------------------
d]-------------------------------
a]-5-5-5-5-5-5-5-5-5-5--10-------
e]-3-3-3-3-3-3-3-3-3-3--8--------

Chorus

e]-------------------------------------------------------------
b]-------------------------------------------------------------
g]-------------------------------------------------------------
d]-------------------------------------------------------------
a]9-9-9-9-9-9-9-9-9-5-5-5-5-5-5-5-5-5-7-7-7-7-7-9-9-9-9-5-5-5-5
e]7-7-7-7-7-7-7-7-7-3-3-3-3-3-3-3-3-3-5-5-5-5-5-7-7-7-7-3-3-3-3

Bridge
3:26

e]-------------------------------
b]-------------------------------
g]-------------------------------
d]-------------------------------
a]-5-5-5-5-5-5-5-5-5-5-----------
e]-3-3-3-3-3-3-3-3-3-3-----------
Keep going until the end of the song
(you will know when to stop!)

OptimusPrime

Submitted by OptimusPrime at Sun 01 Dec, 2002 9:53 am

Author: ?
Composer: ?
Publisher: ?
Language: English

Reactions

CommonCrawl [Bot]

Follow Muzikum