Foo Fighters

Foo Fighters
Have It All (Guitar tab)

Have It All
Foo Fighters
tabbed by ryan

do this four times
E|--------------------------------|
B|--------------------------------|
G|-------5------5------5------5---|
D|--4-4--5--4-4-5--4-4-5--4-4-5---|
A|--------------------------------|
E|--------------------------------|

guitar 1 (let this ring)
E|---------------|
B|-888-----------|
G|-555-----------|
D|-777-----------|
A|-000-----------|
E|---------------|

guitar 2
E|---------------------------------------------------------|
B|------------------------------------7-----7-----5-----5--|
G|------------------------------------7-----7-----5-----5--|
D|---------------------7-------7---77-7--77-7--55-5--55-5--|
A|----0-0-7-3-0--7-3-0---0-7-0---0-55-5--55-5--33-3--33-3--|
E|---------------------------------**----**----**----**----|
*-palm mute

i only have the intro because that is all ive heard of the song
because thats how it downloaded

OptimusPrime

Submitted by OptimusPrime at Sun 01 Dec, 2002 9:53 am

Author: ?
Composer: ?
Publisher: ?
Language: English

Reactions

CommonCrawl [Bot]

Follow Muzikum