Foo Fighters

Foo Fighters
My Hero Solo Acoustic (Guitar tab)

i got this off the "howard stern show" i think it's pretty accurate

use this for the intro and the verse

e-------------------------------------------------------------------
b---------------------------------5---------------------------------
g-----------------------6-6-6-6-6-6---------------------------------
d------2-2-2-2--------6-6-6-6-6-6-----------------------------------
a------2-2-2-2--------4-4-4-4-4-4-----------------------------------
E-------------------------------------------------------------------

CHORUS

e---------------------------------------------------------------------------------------------------------------------------------------------
b---------------------------------------------------------------------------------------------------------------------------------------------
g--------------8-8-8-8-----9-9-9-9----11-11-11-11----------------------8-8-8-8----9-9-9-9----11-11-11-11--------------
d---7-7-7-7----8-8-8-8-----9-9-9-9----11-11-11-11----X 2 2-2-2-2----8-8-8-8----9-9-9-9----11-11-11-11 X 2 repeat
a---7-7-7-7----6-6-6-6-----7-7-7-7----9---9--9---9----------2-2-2-2----6-6-6-6-----7-7-7-7-----9--9--9--9--------------
E---5-5-5-5-------------------------------------------------0-0-0-0-------------------------------------------------------------

little part at end of chorus
e-----------------------------------------------------0-0--0--0---------
b-----------------------------------------------------4/5--4---0-------
g----------------------------------------------------------------------
d----------------------------------------------------------------------
a------------4---2------- 0--------------------------------------------
E------2-2----------4--------------------------------------------------

Hey i think thats pretty good thats the whole song
bye bye god bless yall take care of each other bye bye

OptimusPrime

Submitted by OptimusPrime at Sun 01 Dec, 2002 9:53 am

Author: ?
Composer: ?
Publisher: ?
Language: English

Reactions

CommonCrawl [Bot]

Follow Muzikum