Foo Fighters

Foo Fighters
Fraternity (Guitar tab)

Song : Fraternity
Artist : Foo Fighters

Transcribed by ecca

This is an swesome bonus track on TNLTL

e ----------------------------------------------------
b ----------------------------------------------------
g --8-8--5-5-------8-8--5-5-------8-8--5-5------------
d --8-8--5-5--5-5--8-8--5-5--6-6--8-8--5-5--5-5--6--3-
a --6-6--3-3--5-5--6-6--3-3--6-6--6-6--3-3--5-5--6--3-
E ------------3-3------------4-4------------3-3--4--1-

"Ill never be fraternity"

e ---------------------------------------------------
b ---------------------------------------------------
g -10-10-10-12--8-7-8--3----10-10-10-12--8-7-8-3\1p0-
d ---------------------------------------------------
a ---------------------------------------------------
E ---------------------------------------------------

e ---------------------------------------------------
b ---------------------------------------------------
g -5-8-7-7/10--8-8----------------------------------
d ---------------------------------------------------
a ---------------------------------------------------
E ---------------------------------------------------

"Swear in violence"

e ---------------------------------------------------
b ---------------------------------------------------
g --4-4--6-6-----------------------------------------
d --4-4--6-6--6-6--8-8-------------------------------
a --2-2--4-4--6-6--8-8-------------------------------
E ------------4-4--6-6-------------------------------

Bridge

e ---------------------------------------------------
b -------9--------------------------------------------
g -10-11----etc----------------------------------
d ---------------------------------------------------
a ---------------------------------------------------
E ---------------------------------------------------

Solo

e ---------------------------------------------------
b ---------------------------------------------------
g -10-10-10-12-10-12/13-12-13-13/15------------------
d ---------------------------------------------------
a ---------------------------------------------------
E ---------------------------------------------------

e ---------------------------------------------------
b ---------------------------------------------------
g -15-15-15-17--15\13-12-13-15-13--------------------
d ---------------------------------------------------
a ---------------------------------------------------
E ---------------------------------------------------

e -----------------------------------------------------
b -18-18-18-18/20-18-16-15-16-18-----------15-15/17-15-
g -------------------------------15--15-17-------------
d -----------------------------------------------------
a -----------------------------------------------------
E -----------------------------------------------------

this song is only on the australian version on
There is nothing left to loose

so get it u wont regret it all
if u think its wrong or have any seggestion email me on
ecca@ericsmail.com

OptimusPrime

Submitted by OptimusPrime at Sun 01 Dec, 2002 9:53 am

Author: ?
Composer: ?
Publisher: ?
Language: English

Reactions

CommonCrawl [Bot]

Follow Muzikum