Foo Fighters

Foo Fighters
Next Year Ver 3 (Guitar tab)

Next Year - Foo Fighters

good song, this is only the intro

Standard Tuning

Amount of times chord shown is not relative to how many times it is struck.

Intro
G5 Dadd4 Csus2
e --------10------------10--------------3--------3-----3-------3------3-----
b ---8----8-----8--7----7----7-------1--1--------1--1--1-------1--1---x-----
g ---0----0-----0--0----0----0---0---0--0---0----0--0--0-------0--0---0-----
d ---0----0-----0--0----0--------x---0------0/2--0--------0/2--0------------
a -------------------------------3---3--------------------------------------
e --------------------------------------------------------------------------
G5 Dadd4 Csus2
e --------10-----10------10--------0-----------3--------3---3-------------0-
b --8--8--8---8--8---7---7-----7-----------1---1--1-----1---1-------1--1----
g --0--0--0---0------0---0-----0-------0---0------0-----0---0--0----0--0----
d -----0--0----------0---0-----0-------0----------0/2---0------0/2--0-------
a -------------------------------------3------------------------------------
e --------------------------------------------------------------------------

the rest of the song is these chords and some others which are

Cadd9 - x32033 A7/C#(no root) - x4x02x D5/A - x0023x A7 - x0202x
G/B - xx908x D - xxx0(10)(10) Asus2 - x02200

Chorus - Cadd9 - G5 - Cadd9 - G5 - Cadd9(done x3x5xx) -
A7/C#(no root)(done x4x6xx)

OptimusPrime

Submitted by OptimusPrime at Sun 01 Dec, 2002 9:52 am

Author: ?
Composer: ?
Publisher: ?
Language: English

Reactions

CommonCrawl [Bot]

Follow Muzikum