Pearl Jam

Pearl Jam
W (Bass tab)

Pearl Jam- W.M.A from VS.

G: ---------------------------------------------------------------
D: ------------------------------10-10--10--------------------
A: ---12-12--12-12-12-12/----------------10-10-10-------
E: ---------------------------------------------------------------

G: ---------------------------------------------------------------
D: ------------------------------10-10--10--------------------
A: ---12-12--12-12-12-12/----------------10-10-10-------
E: ---------------------------------------------------------------

G: ---------------------------------------------------------------
D: ------------------------------10-10--10--------------------
A: ---12-12--12-12-12-12/----------------10-10-10-------
E: ---------------------------------------------------------------

And so on�.

OptimusPrime

Submitted by OptimusPrime at Thu 14 Aug, 2003 6:00 pm

Author: ?
Composer: ?
Publisher: ?
Language: English

Reactions

CommonCrawl [Bot]

Follow Muzikum