Pearl Jam
V S Album (Guitar tab)

Date: Thu, 21 Jun 2001 23:11:46 -0400
From: "Rodrigo Melo Mesquita"
Subject: p/pearl_jam/v_s_album.tab

Songbook

V V S S S
V V S
V V S S S
V V S
V S S S S

by

PEARL JAM

Compiled by Rodrigo Melo Mesquita (rodrigocobain@hotmail.com)
Teresina - Piau� - Brasil, 06/06/2001

Well... here I'm again. I compiled this tabs from VS by Pearl Jam,
other great album...
I send this songbook cause I don't find it in OLGA.
Hey guy, I just compiled this songs as has been posted before and I
corrected the lay-out, so credits for original tabs: John Faulding;
Brandon; Paul D; Charles Nicholson; Bryan Steele; Roger Meech;
Rick "Mookie" Posey; Daniel E. Smith; Neil Smith. (I didn't find the
author of W.M.A., if this tab is your own work, send me a mail and I'll
correct it)

Enjoy!!!

Table of Contents

1.Go
2.Animal
3.Daughter
4.Glorified Gun
5.Dissident
6.W.M.A.
7.Blood
8.Rearviewmirror
9.Rats
10.Elderly Woman Behind The Counter In A Small Town
11.Leash
12.Indifference

1.Go
Tabbed by John Faulding.
From: Planettelex

GO - PEARL JAM INTRO (w/random pickings):
E-------------------------------------------------------||--------------
B-------------------------------------------------------||--------------
G---4:--------------x--------7--7--------5-----5--------||--------------
D---4:-----------------x--5--7--7--------5-----5-----4--||--------------
A-------------------------5--x--5--4--3--3--3--3--2--2--||--------------
D----------(12)-----------------------------------------||--------------

Drums/Bass enter, bass playing twice:
E---------------------------|--------------------------|----------------
B---------------------------|--------------------------|----------------
G---------------------------|--------------------------|----------------
D---------------------------|--------------------------|----------------
A------------------2p0------|-----------------2p0------|----------------
D---0-----2-----3-------3^--|--0-----2-----3-------3^--|----------------

Guitar lick over bass (second time)
E--------------------------------------------------------||-------------
B---------------------5-----7--8-----10-----8h10p8\7-----||-------------
G--------------------------------------------------------||-------------
D--------------------------------------------------------||-------------
A--------------------------------------------------------||-------------
D--------------------------------------------------------||-------------

Loud power chords
E------------------||---------------------------------------------------
B------------------||---------------------------------------------------
G------------------||--7:-----7-----7--7--6-----7--7--7--6--------------
D------------------||--8:-----7-----7--7--6-----7--7--7--6--------------
A------------------||---------5-----5--5--4-----5--5--5--4--------------
D------------------||---------------------------------------------------

VERSE:
E-----------------------------------------------------------------------
B-----------------------------------------------------------------------
G-----------------------------------------------------------------------
D-----------------------------------------------------------------------
A-----------------------------------------------------------------------
D-----------------------------------------------------------------------

Repeated 4 times
E------||-------------------------------------||------------------------
B------||-------------------------------------||------------------------
G------||*--4:--------------------------------||------------------------
D------||*--4:--0-----------------------------||------------------------
A------||-------0--------------2p0------------||------------------------
D------||-------0-----2-----3-------3^--x--x--||------------------------

"Oh please don't go out on me..."
E---------------------------||-----||-----------------------------------
B---------------------------||-----||-----------------------------------
G---------------------------||-----||-----------------------------------
D---0-----------------------||-----||--0--------------------------------
A---0-----------2p0---------||-----||--0--------------2p0---------------
D---0--2-----3-------3^--x--||-----||--0-----2-----3-------3^--x--x-----

E---||--------------------------------------||--------------------------
B---||--------------------------------------||--------------------------
G---||--------------------------------------||--------------------------
D---||--0-----------------------------------||--0-----------------------
A---||--0--------------2p0------------------||--0--------------2p0------
D---||--0-----2-----3-------3^--x--x--------||--0-----2-----3-----------

E-------------||-----------------------------------||-------------------
B-------------||-----------------------------------||-------------------
G-------------||-----------------------------------||-------------------
D-------------||--0--------------------------------||--0----------------
A-------------||--0--------------2p0---------------||--0----------------
D---3^--x--x--||--0-----2-----3-------3^--x--x-----||--0-----2-----3----

E------------------||--------------------------------------------||-----
B------------------||--------------------------------------------||-----
G------------------||--------------------------------------------||-----
D------------------||--0-----------------------------------------||-----
A---2p0------------||--0--------------2p0------------------------||-----
D--------3^--x--x--||--0-----2-----3-------3^--x--x--------------||-----

"Despite of it all..."
E---------------------------------||--------------------||--------------
B---------------------------------||--------------------||--------------
G---------------------------------||--------------------||--------------
D---0-----------------------------||--------------------||--------------
A---0--------------2p0------------||--------------------||--------------
D---0-----2-----3-------3^--x--x--||--------------------||--------------

PRE-CHORUS:
E------------------|--------------------||------------------------------
B------------------|--------------------||------------------------------
G---7--7--7--7--6--|--7--7--7--6--4-----||------------------------------
D---7--7--7--7--6--|--7--7--7--6--4--2--||------------------------------
A---5--5--5--5--4--|--5--5--5--4--2--0--||------------------------------
D------------------|--------------------||------------------------------

(REPEAT VERSE & PRE-CHORUS)
E------------------------------------------||---------------------------
B------------------------------------------||---------------------------
G------------------------------------------||---------------------------
D------------------------------------------||---------------------------
A------------------------------------------||---------------------------
D------------------------------------------||---------------------------

"Please please please please please.."
E-----------------------------------------------------------------------
B-----------------------------------------------------------------------
G------------------------------------------------------5--7-------------
D------------------------------------------3--3--3--3--5--7-------------
A------------------------------------------3--3--3--3--3--5-------------
D------------------------------------------3--3--3--3-------------------

"Don't go on on me!" (Repeated)
E------------------------------------------||---------------------------
B------------------------------------------||---------------------------
G---7--7--7--7-----------------------------||---------------------------
D---7--7--7--7-----------------------------||---------------------------
A---5--5--5--5-----------------------------||---------------------------
D------------------------------------------||---------------------------

Lead lick behind chorus:
E---10--10--10--10--10--10--10--8--10--8--10--8--10--8--10--8--10-------
B-----------------------------------------------------------------------
G-----------------------------------------------------------------------
D-----------------------------------------------------------------------
A-----------------------------------------------------------------------
D-----------------------------------------------------------------------

E-------8--10--8-----10--8--10--8--10--8--10--8---------10-----8--10----
B---10-------------------------------------------8--10------8-----------
G-----------------8-----------------------------------------------------
D-----------------------------------------------------------------------
A-----------------------------------------------------------------------
D-----------------------------------------------------------------------

REPEAT VERSE (NO VOCALS)
E---8--10p8---p6p5p4p2p0--||--------------------------------------------
B-------------------------||--------------------------------------------
G-------------------------||--------------------------------------------
D-------------------------||--------------------------------------------
A-------------------------||--------------------------------------------
D-------------------------||--------------------------------------------

AND PRE-CHORUS REPEAT CHORUS
E---------------------------||--------------------------||--------------
B---------------------------||--------------------------||--------------
G---------------------------||--------------------------||--------------
D---------------------------||--------------------------||--------------
A---------------------------||--------------------------||--------------
D---------------------------||--------------------------||--------------

Outro solo:
E-----------------------------------------------------------------------
B---15------15------17------17------18------18---20------20---22--------
G---17^-----17^-----19^-----19^-----20^-----20^--22^-----22^--24^-------
D-----------------------------------------------------------------------
A-----------------------------------------------------------------------
D-----------------------------------------------------------------------

E------------------------------------------------||---------------------
B---22---22---22---22^--22^--22^--22^--22^--22^--||---------------------
G---24^--24^--24^--------------------------------||---------------------
D------------------------------------------------||---------------------
A------------------------------------------------||---------------------
D------------------------------------------------||---------------------

TABLATURE EXPLANATION

h - Hammer on
p - Pull of
/ - Slide up
\ - Slide down
()- Ghost note
x - Dead note
^ - Bend
~ - Vibrato

||------|| Repeat
||*----*||
||*----*||
||------||

----------
-4:------- Time
-4:------- Signature
----------


2.Animal
Tabbed by Brandon

______ ===___ ________ ==========
| | | | | | | | | | | |
e:-----------------------------------------|
B:-----------------------------------------|
G:------------------------------------PO---|
D:-----------------------------7-----(^^)--|
A:--------------------------------6--5--0--|
E:--5----5----5--5-----5----5--------------|

This is how the main riff goes. PO is a pull-off, and the rhythm is
very weakly shown above the bar. As far as the second part of the
verse goes, just hit a D Chord a couple of times like so:

e:-----------|
B:-----7-----|
G:-----7-----|
D:-----7-----|
A:-----5-----|
E:-----------|

And then for the chorus. Each one of these chords is a measure, and you can
strum them at will. Listen to the record for the correct feel.

CHORUS
======

e:--5--------|--8--------|--10-------|--3--------|
B:--5--------|--8--------|--10-------|--3--------|
G:--6--------|--9--------|--11-------|--4--------|
D:--7--------|--7--------|--10-------|--5--------|
A:--7--------|--7--------|--10-------|--5--------|
E:--5--------|--5--------|--8--------|--3--------|

Here's the outro lead guitar track:
________ ________ ________ _______
| | | | | | | | | | | | | | | |
e:--x-x-17-x---x-17-x-x---17-x-x-x---x-x-x-x--|
B:--x-x-17-x---x-17-x-x---17-x-x-x---x-x-x-x--|
G:--x-x-14-x---x-14-x-x---14-x-x-x---x-x-x-x--|
D:--------------------------------------------|
A:--------------------------------------------|
E:--------------------------------------------|
________ ________ ____=== ________
| | | | | | | | | | | | | | |
e:--x-x-17-x---x-17-x-x---17--x-x---x-x-20-20--|
B:--x-x-17-x---x-17-x-x---17--x-x---x-x-20-20--|
G:--x-x-14-x---x-14-x-x---14--x-x---x-x-17-17--|
D:---------------------------------------------|
A:---------------------------------------------|
E:---------------------------------------------|

As far as the solo goes.... it's in A with a lot of Wah... I don't feel
like taking the time to transcribe it. Although I recommend you just
kind of find the right key and play it. That's usually the way I do with
my band. Just know what key you're in and sort of jam, remembering the
overall thematic things. Have fun with this. If you need any help or
any other songs transcribed, let me know...

Brandon

bcorey@netcom.com


3.Daughter
From: Paul D

The tuning is as follows:
Your low E comes up to G.
Your A goes down to the exact same G.
Your D, G, and B strings stay the same.
And your high E goes down to D.

The little intro arpeggio is like this:
D-|-----------0-----|
B-|---------0---0---|
G-|-------0-------0-| (let ring)
D-|-----7-----------|
G-|---5-------------|
G-|-0---------------|

Then the guitar comes in full force and goes on throughout the verses:
D-|-0-0-0-0-|--0--0--0-0-0--|--0--0--0---0-0-0-|-0-0--0--0--0-0-0-|
B-|-0-0-0-0-|--0--0--0-0-0--|--0--0--0---0-0-0-|-0-0--0--0--0-0-0-|
G-|-0-0-0-0-|--0--0--0-0-0--|--0--0--0---0-0-0-|-0-0--0--0--0-0-0-|
D-|-0-0-0-0-|-/9--7\-0-0-0--|--7-/9--7\--0-0-0-|-0-0-/9--7\-0-0-0-|
G-|-0-0-0-0-|-/7--5\-0-0-0--|--5-/7--5\--0-0-0-|-0-0-/7--5\-0-0-0-|
G-|-0-0-0-0-|--0--0--0-0-0--|--0--0--0---0-0-0-|-0-0--0--0--0-0-0-|

D-|-0-0-0-0-0-0-0-0-0-0---0-|
B-|-0-0-0-0-0-0-0-0-0-0---0-|
G-|-0-0-0-0-0-0-0-0-0-0---0-|
D-|-7-7-7-7-7-7-7-7-7-7---0-|
G-|-5-5-5-5-5-5-5-5-5-5---0-|
G-|-0-0-0-0-0-0-0-0-0-0---0-|


The following is how you play the Em7-Em6 part ("She holds the hand
D-|--0--0--0--0--0----0--0--0--0--0-| That holds her down...")
B-|--0--0--0--0--0----0--0--0--0--0-|
G-|--0--0--0--0--0----0--0--0--0--0-|
D-|-12-12-12-12-11---12-12-12-12-11-|
G-|--9--9--9--9--9----9--9--9--9--9-|
G-|--0--0--0--0--0----0--0--0--0--0-|

Solo:
Tabbed by Charles Nicholson (cnichols@helios.skidmore.edu)

Notation: ^ Hammer-On (Pull-off)
~ Bend
* Whammy Bar

Key of G: (First section easiest w/a 3rd fret 2nd position G chord...)

E--------3------3------3------3--------------------------------------------
B---3^5----3^5----3^5----3^5----3^5--3---3---------------------------------
G--------------------------------------4---4--2^0--2^0-----0**--0---0-2-3--
D-------------------------------------------------------2------------------
A--------------------------------------------------------------------------
E--------------------------------------------------------------------------
(Not too sure here..Vedder's singing)
E--------------|-----------------------3--3^7^3----------------------------
B--------------V---------------------------------5^3-----3^5^3----3^5^3----
G---4*******-3~4~3^2^0----0^2--0----------------------4---------4--------4-
D----------------------2---------------------------------------------------
A--------------------------------------------------------------------------
E--------------------------------------------------------------------------
(let ring)
E---3--3^7^3----------3---------3--------10-10-------10----10--------------
B-------------5^3-----3^5^3-----3^5^3----------10~12~~~~12~~~~12~10^8-10^8-
G------------------4---------4--------4----------------(Hold bend for all--
D-------------------------------------------------------twelves until end)-
A--------------------------------------------------------------------------
E--------------------------------------------------------------------------


4.Glorified G
Transcribed by Bryan Steele - bsteele@asu.edu

Below is the opening riff that Mike plays. This riff is used throughout
the song without much variation.

E-|---------------------------------------------------------------------------|
B-|------3----3--3-------3----3-3------3----3--3-------3---2------------------|
G-|--0h2---2--4--2---0h2---2--1-2--0h2---2--4--2---0h2---2-0------------------|
D-|---------------------------------------------------------------------------|
A-|---------------------------------------------------------------------------|
E-|---------------------------------------------------------------------------|

This is the little rhythm riff that Stone plays. Listen to this to get the
groove that he is playing -- don't forget the muted rakes.

E-|---------------------------------------------------------------------------|
B-|---------------------------------------------------------------------------|
G-|---------------------------------------------------------------------------|
D-|--7---6---5-6--------------------------------------------------------------|
A-|--5---5---7-5---muted--rakes-----------------------------------------------|
E-|---------------------------------------------------------------------------|

Stone and Mike basically play the these next two lines about the same.
Although I have added more of what Mike plays into the tab.

E-|------------------------------|----5-------5-------------------------------|
B-|--3-3-3--3--3----3-3-3--3--3--|--6-6-6-6-6-6-6-6-6-6-6-6-6-6-6---5-5-5-----|
G-|--2-2-2h-4--2----2-2-2h-4--2--|--5-5-5-5-5-5-5-5-5-5-5-5-5-5-5---5-5-5-----|
D-|--0-0-0--0--0----0-0-0--0--0--|--5-5-5-5-5-5-5-5-5-5-5-5-5-5-5---5-5-5-----|
A-|------------------------------|--------------------------------------------|
E-|------------------------------|--------------------------------------------|
Got a gun, fact I got 2 That's OK man 'cuz I love God

E-|-------------------------------|-------5-----------5-----------------------|
B-|--3-3-3--3-3--------3-------3--|-6-6-6-6-6-6-6-6-5-5-5-5-5-5-5-5-----------|
G-|--2-2-2h-4-2--------2-------2--|-5-5-5-5-5-5-5-5-5-5-5-5-5-5-5-5-----------|
D-|--0-0-0--0-0---2h-4----2h-4----|-5-5-5-5-5-5-5-5-5-5-5-5-5-5-5-5-----------|
A-|-------------------------------|-------------------------------------------|
E-|-------------------------------|-------------------------------------------|
Glorified version of a pellet gun Feels so manly when armed

This is a really weird switch in the song ("Always, keep it looooaaaded!!").
The chord pattern is C, C#, D#. Sometimes it is hard to remember to go
to this pattern. If you listen to the live Atlanta show, Mike even
forgets to hit the right chords!

E-|----------------------9-9----|----------------------9-9--------9-9---------|
B-|------------------8-8-9-9-8--|------------------8-8-9-9-8--8-8-9-9-8-------|
G-|--5--5-5--6--6-6--8-8-8-8-8--|--5--5-5--6--6-6--8-8-8-8-8--8-8-8-8-8-------|
D-|--5--5-5--6--6-6--8-8-8-8-8--|--5--5-5--6--6-6--8-8-8-8-8--8-8-8-8-8-------|
A-|--3--3-3--4--4-4--6-6-6-6-6--|--3--3-3--4--4-4--6-6-6-6-6--6-6-6-6-6-------|
E-|-----------------------------|---------------------------------------------|

This is a very simple variation to the first riff that Mike plays. He
basically plays the A note a few more times that normal and throws a simple
5th fret bend. For those of you that can't follow the notation, 5b p3 means
to bend the 5th fret to 7th (whole step), drop the bend back down and
pull off
to the 3rd fret.

E-|----------------------------------|----------------------------------------|
B-|-----3---3--3--------------3---3--|------3---2--3-------------3---3-5b-p3--|
G-|-0h2---2-4--2-2-2-2-2-0h-2---2-1--|--0h2---2-4--2-2-2-2-2-0h2---2-0--------|
D-|----------------------------------|----------------------------------------|
A-|----------------------------------|----------------------------------------|
E-|----------------------------------|----------------------------------------|

Here is the solo. I am not even sure if it is worth transcribing solos. I
would like to hear some feedback from people. Let me know if this even
helps
anyone to learn the solo. I know that sometimes tab is really hard to
follow.

Anyway, tackle this a little bit at a time. It really is a pretty easy solo
to learn. Just think of each part as a small riff.

E-|--------------------------------|------------------------------------------|
B-|---------------7--10p7--10b--10-|-10b--10--7-------------------------------|
G-|------7hp9--9b------------------|-------------9b--7---7--------------------|
D-|--7h9---------------------------|-------------------9----------------------|
A-|--------------------------------|------------------------------------------|
E-|--------------------------------|------------------------------------------|

This measure might not be correct. Play this twice.
E-|------------------------------------|------------10---------10-------------|
B-|------------------------------------|-10--10h-12-----10h-12----10----------|
G-|------------------------------------|-----------------------------11-------|
D-|-9p-7-7-----------------------------|--------------------------------------|
A-|---------9p-7-7--9-------7--7b-7----|--------------------------------------|
E-|-------------------10--7---------10-|--------------------------------------|

Play this a couple times. Play this twice.
E-|----12p-10----14p-10----12p-10----14p-10----|-12b-12b--10------------------|
B-|-10--------10--------10--------10--------10-|-------------12-10------------|
G-|--------------------------------------------|------------------------------|
D-|--------------------------------------------|------------------------------|
A-|--------------------------------------------|------------------------------|
E-|--------------------------------------------|------------------------------|

Get used to the bend/hold/release.
E-|-10b-10--------10------10-------------|------------------------------------|
B-|--------12--10b-hold-10---10-release--|-7--10------10-10-10-10--------10-10|
G-|--------------------------------------|-7--9b-hold-9--9--9--9-release-9--7-|
D-|--------------------------------------|-----------------------------------9|
A-|--------------------------------------|------------------------------------|
E-|--------------------------------------|------------------------------------|

E-|-10b-10--------------------------------------------------------------------|
B-|--------12-10--------10----10------------10--------------------------------|
G-|--------------11--9b-hold-9---9-release--7---------------------------------|
D-|---------------------------------------------------------------------------|
A-|---------------------------------------------------------------------------|
E-|---------------------------------------------------------------------------|

Well, that is it. Send any question & comments to bsteele@asu.edu.

When you learn this one, teach it to a friend. See ya!


5.Dissident
Transcribed by Roger Meech (rmeec@hcsd.hac.com)

The key to playing most of the rhythm parts is the open G string.
Add it liberally. Standard tuning.

| Symbols
|
| h - hammer on
| p - pull off
| ~ - vibrate note
| = - hold note
| / - slide up
| \ - slide down
| X - string noise
+-------------------------------------------------------------

Chords:

E A D G B e
G: 3 5 5 0 X X
F#5: 2 4 4 X X X
Fadd9: 1 3 3 0 X X

Intro:

Play twice:

G F#5 Fadd9 G
e-----------------------------|-----------------------|
B-----------------------------|-----------------------|
G--14b16--14b16r14--12--14~ --|--14--14b16-r14--12~ --|
D-----------------------------|-----------------------|
A-----------------------------|-----------------------|
E-----------------------------|-----------------------|

Play twice:

G F#5 Fadd9 G
e------------------------------------|----------------------|
B---------15--------15---------------|----------------------|
G--14b16===--14b16===---14b16-r14~ --|--14--14b16-r14-12~ --|
D------------------------------------|----------------------|
A------------------------------------|----------------------|
E------------------------------------|----------------------|

Verse Riff:

e-------------------------------3---3------3-----3-----------------|
B--1-----1------------------3---3-3-3---6--5--3--5---3--3----3-0X--|
G--0-------0----------------3---3-3-3---3--3--3--3---3--5----5-0X--|
D--0h2-------0h2--2h3--3/5--5---5-5-5---5--5--5--5------5----5-----|
A--3------------------------3---3-3-3---3--3--3--3------3----3-----|
E------------------------------------------------------------------|

e-------------------------------3---3------------------------|
B--1------------------------3---3-3-3---6--3--5---3---3--5\--|
G--0-----0------------------3---3-3-3---3--3--3---5---5--5\--|
D--0h2---2---0h2--2h3--3/5--5---5-5-5---5--5--5---5---5--5\--|
A--3------------------------3---3-3-3---3--3--3---3----------|
E------------------------------------------------------------|

Fill at end of Verse Riff:

e-----------------|
B---6--3--5-------|
G------------5~ --|
D-----------------|
A-----------------|
E-----------------|

Verse 1 (with Verse Riff):

Chorus 1:

G F#5 Fadd9 G
"When she couldn't hold"
e-----------------------------|-----------------------|
B-----------------------------|-----------------------|
G--14b16--14b16r14--12--14~ --|--14--14b16-r14--12~ --|
D-----------------------------|-----------------------|
A-----------------------------|-----------------------|
E-----------------------------|-----------------------|

G F#5 Fadd9 G
"She folded" "A dissident is here"
e-----------------------------|-----------------------|
B-----------------------------|-----------------------|
G--14b16--14b16r14--12--14~ --|--14--14b16-r14--12~ --|
D-----------------------------|-----------------------|
A-----------------------------|-----------------------|
E-----------------------------|-----------------------|

G F#5 Fadd9 G
"Escape is never" "the safest path"
e-------------------------|---------------------------|
B--15b17----15b17--r15~ --|--15b17---15b17-r15--------|
G-------------------------|---------------------12~ --|
D-------------------------|---------------------------|
A-------------------------|---------------------------|
E-------------------------|---------------------------|

G F#5 Fadd9 G
"A dissident" "A dissident is here"
e-----------------------------|-----------------------|
B-----------------------------|-----------------------|
G--14b16--14b16r14--12--14~ --|--14--14b16-r14--12~ --|
D-----------------------------|-----------------------|
A-----------------------------|-----------------------|
E-----------------------------|-----------------------|

Verse 2 (with Verse Riff):

Chorus 2:

Repeat 4 times:

G F#5 Fadd9 G
e-----------------------------|-----------------------|
B-----------------------------|-----------------------|
G--14b16--14b16r14--12--14~ --|--14--14b16-r14--12~ --|
D-----------------------------|-----------------------|
A-----------------------------|-----------------------|
E-----------------------------|-----------------------|

Bridge:

Repeat 4 times:

e-------------------------------------------------------------|
B--------------------------8--------------8----------8--------|
G--0---0---0---0---0---0-0---0-0-0--0-0-0---0-0-0--0---0-0-0--|
D--5/------3/------5------------------------------------------|
A--5/------1/------3------------------------------------------|
E--3/---------------------------------------------------------|


Chorus 3:

G F#5 Fadd9 G
"When she couldn't hold"
e-----------------------------|-----------------------|
B-----------------------------|-----------------------|
G--14b16--14b16r14--12--14~ --|--14--14b16-r14--12~ --|
D-----------------------------|-----------------------|
A-----------------------------|-----------------------|
E-----------------------------|-----------------------|

G F#5 Fadd9 G
"She folded" "A dissident is here"
e-----------------------------|-----------------------|
B-----------------------------|-----------------------|
G--14b16--14b16r14--12--14~ --|--14--14b16-r14--12~ --|
D-----------------------------|-----------------------|
A-----------------------------|-----------------------|
E-----------------------------|-----------------------|

G F#5 Fadd9 G
"Escape is never" "The safest path"
e-----------------------------|-----------------------------------|
B-----------------------------|------------------------15b17-15~ -|
G--14b16--14b16r14--12--14~ --|--14--14b16-r14--12~ --------------|
D-----------------------------|-----------------------------------|
A-----------------------------|-----------------------------------|
E-----------------------------|-----------------------------------|

G F#5 Fadd9 G
"A dissident" "A dissident is here"
e----------------------------------|------------------------------------|
B--15b17--15b17-r15----------------|--15b17--15b17-r15------------------|
G--------------------12~ --h14p12--|--------------------12~ --------12--|
D----------------------------------|--------------------------12h14-----|
A----------------------------------|------------------------------------|
E----------------------------------|------------------------------------|

G F#5 Fadd9 G
"Couldn't hold" "No she couldn't hold"
e-----------------------------|------------------------15b17-15~ -|
B-----------------------------|-----------------------------------|
G--14b16--14b16r14--12--14~ --|--14--14b16-r14--12~ --------------|
D-----------------------------|-----------------------------------|
A-----------------------------|-----------------------------------|
E-----------------------------|-----------------------------------|

G F#5 Fadd9 G
"She folded" "A dissident is here"
e---------------------------------------------|-----------------------
B---------------------------------------------|-----------------------
G--14b16--14b16r14--12--14~ --------12-14p12--|--14--14b16-r14--12~ --
D-----------------------------12-14-----------|-----------------------
A---------------------------------------------|-----------------------
E---------------------------------------------|-----------------------

G F#5 Fadd9
"Escape is never" "The safest path"
e-------------------|------------------------------|---------------------
B------15----15-----|-15h17~ --15----15h17~ --15~ -|-----15h17~ --15-----
G--/16----16----16--|-------------16---------------|--16-------------16--
D-------------------|------------------------------|---------------------
A-------------------|------------------------------|---------------------
E-------------------|------------------------------|---------------------

G F#5 Fadd9 G
"A dissident, a dissident is here"
e--------------------|-15~ ------15~ --15--------|---------------------|
B--15h17~ --15~ --17-|-------17-----------15h17--|-15h17p15------------|
G--------------------|---------------------------|----------16\14-12~ -|
D--------------------|---------------------------|---------------------|
A--------------------|---------------------------|---------------------|
E--------------------|---------------------------|---------------------|

e---8-------|
B---8----8--|
G---5----7--|
D---5----5--|
A-----------|
E-----------|


6.W.M.A.

This is a very loose transcription of the main bass riff:

--------------------------------------
--------------------------------------
--------------------------------------
---5--5--5-5-3-5-\-8-8--8-3-3-0-0-0---
repeat

Verse:

The guitar is moved so far back in the mix that it is difficult to get this
exact, so just kind of improvise with the A chord like:

Guitar 1 (Stone)
----------------------------------------
--x-x-2-----------2------x-2---------2--
--x-x-2-----2-0-2---2----x-2---2-0-2-2--
--x-x-2-2-2-----------2--x---2-------2--
----------------------------------------
----------------------------------------

Guitar 2 is just a solo type in Amin, so once again, just improvise

Guitar 2 (Mike)
----------------5~~~~~~-----------------
---------3~~~~~~--------------3~~~~~~---
--2~~~~~~-------------------------------
-----------------------2~~~~~~----------
----------------------------------------
----------------------------------------

The chorus is more of the same but Guitar 1 is more of the chords rather
than the mutes and runs. Guitar 2's soloing is faster.

Since the guitars are so back in the mix, I can't really tell if the chords
are changing in the chorus, so you might want to throw in some chords based
on the bass notes (A, G, C, E)


7.Blood
Tabbed by Rick "Mookie" Posey
8256 Cedar Landing Court
Alexandria, VA 22306
USA

intro: C Bb G

verse:
|-1-x-x-1/3-3-3-3--|
|-3-x-x-3/5-5-5-5--|
|-3-x-x-3/5-5-5-5--|
|------------------|
|------------------|
|------------------|

during 2nd verse, guitar two plays this:
|---------------------------------------------------------------------
|-3------------------3-----------------3------------------------------
|---5------------------5-----------------5----------------------------
|-----5-3h5-5-5-5-5------5-3h5-5-5-5-5-----5-3h5-5-5-5-5--------------
|---------------------------------------------------------------------
|---------------------------------------------------------------------

chorus: same as intro

end: Mike goes crazy with the wah. I have no idea what he's doing.

note: There are two guitars (duh) in here and one of them has a different
tuning.


8.Rearviewmirror
Tabbed by Rick "Mookie" Posey
8256 Cedar Landing Court
Alexandria, VA 22306
USA

intro:
|---------------------------------------------------------------------
|---------------------------------------------------------------------
|---------------------------------------------------------------------
|-------------------do this several times-----------------------------
|---0-5-0-5h7-------------------------guitar two comes in with--------
|-5-----------0-0---------------------distortion playing the same riff

verse same as intro with following:

|---------------------------------------------------------------------
|---------------------------------------------------------------------
|---------------------------------------------------------------------
|--------------------both guitars-------------------------------------
|---0-7---7h9---------------------------------------------------------
|-7-----7------0-0----------------------------------------------------

chorus:
|-2-2-2-2-2-2-2-2-2-2-2-2-2-2-2/4-4--3-3-3-3-3-3-3-3-3-3-3-3-3-3-3/5-5
|-3-3-3-3-3-3-3-3-3-3-3-3-3-3-3/5-5--3-3-3-3-3-3-3-3-3-3-3-3-3-3-3/5-5
|-4-4-4-4-4-4-4-4-4-4-4-4-4-4-4/6-6--4-4-4-4-4-4-4-4-4-4-4-4-4-4-4/6-6
|-4-4-4-4-4-4-4-4-4-4-4-4-4-4-4/6-6--5-5-5-5-5-5-5-5-5-5-5-5-5-5-5/7-7
|-2-2-2-2-2-2-2-2-2-2-2-2-2-2-2/4-4--5-5-5-5-5-5-5-5-5-5-5-5-5-5-5/7-7
|------------------------------------3-3-3-3-3-3-3-3-3-3-3-3-3-3-3/5-5

|-2-2-2-2-2-2-2-2-2-2-2-2-2-2-2------3-3-3-3-3-3-3-3-3-3-3-3-3-3-3----
|-2-2-2-2-2-2-2-2-2-2-2-2-2-2-2------3-3-3-3-3-3-3-3-3-3-3-3-3-3-3----
|-3-3-3-3-3-3-3-3-3-3-3-3-3-3-3------4-4-4-4-4-4-4-4-4-4-4-4-4-4-4----
|-4-4-4-4-4-4-4-4-4-4-4-4-4-4-4------5-5-5-5-5-5-5-5-5-5-5-5-5-5-5----
|-4-4-4-4-4-4-4-4-4-4-4-4-4-4-4------5-5-5-5-5-5-5-5-5-5-5-5-5-5-5----
|-2-2-2-2-2-2-2-2-2-2-2-2-2-2-2-0-1--3-3-3-3-3-3-3-3-3-3-3-3-3-3-3----

then strum A in couplets (you know...du du....du du nevermind)
while struming A, start playing intro riff-this is the second verse!

chorus w/ this fill that Mike plays second time around:
|--------12-14-----------12-14-----------12-14------------------------
|-12-12-----------12-12------------12-12-------12-12-12-14-14b-14-----
|---------------------------------------------------------------------
|---------------------------------------------------------------------
|---------------------------------------------------------------------
|---------------------------------------------------------------------

|---------------------------------------------------------------------
|-12-14b----14~~~~----------------------------------------------------
|---------------------------------------------------------------------
|---------------------------------------------------------------------
|---------------------------------------------------------------------
|---------------------------------------------------------------------

interlude (slower):
|---------------------------------------------------------------------
|---------------------------------------------------------------------
|---------------------------------------------------------------------
|---------------------------------------------------------------------
|---------------------------------------------------------------------
|-3--7b--5----3--7b--5------------------------------------------------
|both guitars start strumming D right here.

D
"Saw things.....saw things...saw things...saw things...saw things
Bm
clearer...clearer"
then chorus with fill mentioned earlier

Bm A till end of song


9.Rats
Tabbed by Rick "Mookie" Posey
8256 Cedar Landing Court
Alexandria, VA 22306
USA

bass line (roughly)
|---------------------------------------------------------------------
|-2--------------------2----------------------------------------------
|---------------------------------------------------------------------
|---0-0-1-3-3-3-1-1-0----0-0-1-3-3-3-1-1-0----------------------------

|---------------------------------------------------------------------
|---------------------------------------------------------------------
|---------------------------------------------------------------------
|---5------------5----------------------------------------------------
|---------------------------------------------------------------------
|---------------------------------------------------------------------

during verse guitars do this:
|---------------------------------------------------------------------
|---------------------------------------------------------------------
|--------9\--x-x-x-x-/9-----------------------------------------------
|--------9\--x-x-x-x-/9-----------------------------------------------
|--------7\--x-x-x-x--------------------------------------------------
|--0--0---------------------------------------------------------------

chorus: A B C
fill that Mike plays during chorus:
|---------------------------------------------------------------------
|-10------------10------10-----10-------------------------------------
|-12b-----------12b-----12b----12b------------------------------------
|---------------------------------------------------------------------
|---unison bends------------------------------------------------------
|---------------------------------------------------------------------

after chorus and 2nd verse:
|-----0-------------------0-------------------------------------------
|-----0-------------------0-------------------------------------------
|-----1--0--2b-2b-0-------1--0--2b-2b-0-------------------------------
|-2-2----0------------2-2----0----------------------------------------
|-2-2-----------------2-2---------------------------------------------
|-0-0-----------------0-0---------------------------------------------
|guitar two:
|---------------------------------------------------------------------
|---------------------------------------------------------------------
|--------9\--x-x-x-x-/9-----------------------------------------------
|--------9\--x-x-x-x-/9-----------------------------------------------
|--------7\--x-x-x-x--------------------------------------------------
|--0--0---------------------------------------------------------------

chorus: A B C

solo with wah: this isn't complete
|----------------------------12b----12---------12-----------12--------
|--10b-11-10-8-10-10--12-15------15----15--15b----15-12-15b----15-12--
|---------------------------------------------------------------------
|---------------------------------------------------------------------
|---------------------------------------------------------------------
|---------------------------------------------------------------------

|-----12-12-----12-12-------------------------------------------------
|-15b-------15b---------12h15p12-10-12-12-----------------------------
|-----------------------------------------10-12-10-9-10---------------
|---------------------------------------------------------------------
|---------------------------------------------------------------------
|---------------------------------------------------------------------

|-17-15-------------17-15--------------15-17-18b----------------------
|-------17-14-15-17-------17-14-15-17---------------------------------
|---------------------------------------------------------------------
|---------------------------------------------------------------------
|---------------------------------------------------------------------
|---------------------------------------------------------------------

chorus
then
C B Bb C G
Bb C G-this till end


10.Elderly Woman Behind the Counter in a Small Town
Edited by Dansm 4-13-97
Daniel E. Smith, des24@cornell.edu

Verse1:

D G C9 G
I seem to recognize your face
D G C9 G
Haunting familiar yet I can't seem......

Bridge 1:

C9 G C9
All these changes taking place
G C9
Wish I'd seen the place......

Chorus 1:

D C9 G C9 G
Hearts and thoughts they fade fade away......

Verse 2:

D G C9 G
I swear I recognize your breath
Memories like fingerprints......

Bridge 2:

C9 G C9
I change by not changing at all
G C9
Small town predicts......

D C9 G C9 G
I just want to scream hello
D C9 G C9 G
My god it's been so long never dreamed......

Chorus 2:
D C9 G C9 G
Hearts and thoughts they fade fade away......


CHORDS:
D xx0232
G 320033
C9 x32033


11.Leash
Tabbed by Rick "Mookie" Posey
8256 Cedar Landing Court
Alexandria, VA 22306
USA

intro: B
then (this is the verse too):
|---------------------------------------------------------------------
|-----------------------10--12----------------------------------------
|-------------------------------9-11----------------------------------
|---------------------------------------------------------------------
|--7h9-7h9-7h9-7h9----------------------------------------------------
|--7---7---7---7------------------------------------------------------

prechorus: A B C D B C
D C B C

verse
prechorus
chorus: D C B C
with:
|--10-10-10-8-8-7-7-10-10-10-10-10-8-8-7-7-10-10-10-10s12-12-12-------
|---------------------------------------------------------------------
|---------------------------------------------------------------------
|---------------------------------------------------------------------
|---------------------------------------------------------------------
|---------------------------------------------------------------------

|12-12-13-12-10-10-12-12-13-13-12-10-10-12-12-13-13-12-10-10-12-12----
|---------------------------------------------------------------------
|---------------------------------------------------------------------
|---------------------------------------------------------------------
|---------------------------------------------------------------------
|---------------------------------------------------------------------

|-13-13-12-15s17s15-15s17s15-------15-------15--------15--------------
|----------------------------15h17----15h17-----15h17-----------------
|---------------------------------------------------------------------
|---------------------------------------------------------------------
|---------------------------------------------------------------------
|---------------------------------------------------------------------

verse

solo:
|-12--15--12--15--12--15--15-12---------------------------------------
|-15b-----15b-----15b------------12-15-12--12-------15-13-------------
|----------------------------------------14---12-14-------12-14b------
|-unison--------------------------------------------------------------
|---------------------------------------------------------------------
|---------------------------------------------------------------------

|-15-12-15-17-21b--20----------15--21b-20-----------------------------
|---------------------17-15-17------------shit lost it----------------
|--------------------------------------------finish in G--------------
|---------------------------------------------------------------------
|---------------------------------------------------------------------
|---------------------------------------------------------------------


12.Indifference
Tabbed by Neil Smith (nj2_smit@uwe.ac.uk)

Hi all! I haven't seen any good tab floating around for this one, so
I thought I'd send my version, having finally got post working !!!

Notation: (Please pay attention, 'cos I'm not using brackets () for their
usual purpose !)

h - hammer on
p - pull off
/ - slide up
\ - slide down
b - bend string
(7) - natural harmonic ring (in this case, fret 7)

Here's the main riff. It's for the bass, although no-one can stop you
playing it on guitar :)

-----(5)---------(7)-----
-------(7)---------(7)---
--7-----------5----------
-7-----------5-----------

There, that was easy. Then after the first verse, the guitar plays:

-------------------------------------------------
17---15------------------------------------------
---------16---14---------------------------------
------------------16-17/19--17-------------------
-------------------------------------------------
-------------------------------------------------

It's either that, or

12---10------------------------------------------
---------12---10---------------------------------
------------------11-12/14---12------------------
-------------------------------------------------
-------------------------------------------------
-------------------------------------------------

I can't tell. Oh well, they sound virtually the same, but the second one's
easier on an acousic. Well it is on _my_ acousitc :)

For the 2nd chorus onwards, I think (listen to the song!), and in various
places later, the bass plays :

----(12)--------(7)---------(5)---------(5)------
------(12)--------(7)---------(7)---------(7)----
--10------\\\5------------7-----------7----------
10----------------------7-----------7------------

The other guitar riff which crops up later is:

---------15-------------------------
17p15-------------17p15-------------
------16-------16-------16-16----16- Play This
------------------------------------ Part Twice
------------------------------------
------------------------------------

------------------------------------
15---17---19b20b19---15--17---------
------------------------------------
------------------------------------
------------------------------------
------------------------------------
^^^^^^^^^^^^^^^^^
This plays the second time round. Listen to the record and
you'll see what I mean.

^You can also play this as 14b15b14 on top E.

I think that's just about it.


Well... enjoy the songbook!!!

GRUNGE IS NOT DEAD!!!

Rodrigo Melo Mesquita (rodrigocobain@hotmail.com)
Nickname at brasIRC: Teen_Spirit

Copyrights
Author: ?
Composer: ?
Publisher: ?
More details
Language: English

Reactions

CommonCrawl [Bot]

Follow Muzikum