Papa Roach

Papa Roach
S (Guitar tab)

Tuning: (from high to low) ebgdad

This is a easy song to play.

INTRO,

e|---------------------------
b|---------------------------
g|---------------------------
d|77---7-33---3-00-0-22xxxx22
a|77---7-33---3-00-0-22xxxx22
d|77---7-33---3-00-0-22xxxx22 (3x)

PRE-CHORUS,

e|----------------------------------------
b|----------------------------------------
g|----------------------------------------
d|77--222--33--222--00--222--22--222--222-
a|77-----3-33-----3-00-----3-22-----3----3
d|77-------33-------00-------22----------- (1x)

CHORUS

e|-------------------------
b|-------------------------
g|-------------------------
d|3333-3--555-5-777-7-777-7
a|3333-3--555-5-777-7-777-7
d|3333-3--555-5-777-7-777-7 (2x)

BRIGE 1

e|--------------
b|--------------
g|--------------
d|333--3-55-5-77
a|333--3-55-5-77
d|333--3-55-5-77 (1x)

VERSE ( the same as the intro but do not play the 1st two notes)

PRE-CHORUS

CHORUS (1X)

then play this the 2nd time.
CHORUS PART 2
e|-----------------------------------------------------0(ring)
b|-----------------------------------------------------0
g|------------------------------------------------------
d|3333-3--555-5--777-7-777-7----------10-10-10/5-5--777-
a|3333-3--555-5--777-7-777-7(let ring)10-10-10/5-5--777-
d|3333-3--555-5--777-7-777-7----------10-10-10/5-5--777-
[ this part 2x ]

BRIGE 1 (1x)

VERSE (3x)
PRE-CHORUS(1X)
CHORUS (1X)
CHORUS PART 3 (1X)

e|----------------------------------------
b|----------------------------------------
g|----------------------------------------
d|3333333-5555555-7777777777777(play these notes al lot of times)
a|3333333-5555555-7777777777777-----------
d|3333333-5555555-7777777777777-----------

CHORUS PART 2 (1X)

BRIGE 2

e|---------
b|---------
g|---------
d|222222222
a|222222222
d|222222222 (1x)
[pm........]

OUTRO

e|--------
b|--------
g|--------
d|777-7--7
a|777-7--7(let ring)
d|777-7--7 (1x)

Thats it. Easy to play,a f**king good song with a f**cking good album of Papa Roach. I'm sure it's 100% correct, because when I play it with the cd there is no difference. So give this tab a f**king 5.0 rating!
Thanx, for comments or questions mail me on bloodbizkit@hotmail.com.

OptimusPrime

Submitted by OptimusPrime at Thu 14 Aug, 2003 5:59 pm

Author: ?
Composer: ?
Publisher: ?
Language: English

Reactions

CommonCrawl [Bot]

Follow Muzikum