Papa Roach
M-80 Ver 2 (Guitar tab)

Papa Roach
LoveHateTragedy
M-80 (explosive energy movement)

Drop-D (DADGBE)

------------------------------------------------------------------------------
------------------------------------------------------------------------------
-10-10-10-10-10-10-10-10-9-9-9-9-9-9-9-9-5-5-5-5-5-5-5-5-7-7-7-7-7-7-7-7------
-8--8--8--8--8--8--8--8--7-7-7-7-7-7-7-7-3-3-3-3-3-3-3-3-5-5-5-5-5-5-5-5------
-8--8--8--8--8--8--8--8--7-7-7-7-7-7-7-7-3-3-3-3-3-3-3-3-5-5-5-5-5-5-5-5------
-8--8--8--8--8--8--8--8--7-7-7-7-7-7-7-7-3-3-3-3-3-3-3-3-5-5-5-5-5-5-5-5------
Intro (Similar to Chorus)

------------------------------------------------------------------------------
------------------------------------------------------------------------------
-10-10-10-10-10-10-10-12-12-12-12-12-12-12-12---------------------------------
-8--8--8--8--8--8--8--10-10-10-10-10-10-10-10---------------------------------
-8--8--8--8--8--8--8--10-10-10-10-10-10-10-10---------------------------------
-8--8--8--8--8--8--8--10-10-10-10-10-10-10-10---------------------------------


--------------------|---------------------|---------------------|-----------------------|--------------------|
--------------------|---------------------|---------------------|-----------------------|--------------------|
---------------10---|------------------10-|---------------10----|-----------------------|-----------10-------|
-0-0-12-0-10-0-x--10|-0-12-0-0-10-0-10-x--|-0-0-12-0-10-0-x--10-|-0-12-0-12-12-12-10-12-|-0-12-0-12-x--10-12-|
-0-0-12-0-10-0-8--10|-0-12-0-0-10-0-10-8--|-0-0-12-0-10-0-8--10-|-0-12-0-12-12-12-10-12-|-0-12-0-12-8--10-12-|
-0-0-12-0-10-0----10|-0-12-0-0-10-0-10----|-0-0-12-0-10-0----10-|-0-12-0-12-12-12-10-12-|-0-12-0-12----10-12-|
Verse

------------------------------------------------------------------------------
------------------------------------------------------------------------------
-10-10-10-10-10-10-10-10-9-9-9-9-9-9-9-9-5-5-5-5-5-5-5-5-7-7-7-7-7-7-7-7------
-8--8--8--8--8--8--8--8--7-7-7-7-7-7-7-7-3-3-3-3-3-3-3-3-5-5-5-5-5-5-5-5------
-8--8--8--8--8--8--8--8--7-7-7-7-7-7-7-7-3-3-3-3-3-3-3-3-5-5-5-5-5-5-5-5------
-8--8--8--8--8--8--8--8--7-7-7-7-7-7-7-7-3-3-3-3-3-3-3-3-5-5-5-5-5-5-5-5------


------------------------------------------------------------------------------
------------------------------------------------------------------------------
------------------------------------------------------------------------------
-0-3-0-5-7-5-3--5--3--5-3-----------------------------------------------------
-0-3-0-5-7-5-3--5--3--5-3-----------------------------------------------------
-0-3-0-5-7-5-3--5--3--5-3-----------------------------------------------------
Bridge (BREAK IT!)

------------------------------------------------------------------------------
------------------------------------------------------------------------------
-10-10-10-10-10-10-1010-9-9-9-9-9-9-9-9-5-5-5-5-5-5-5-5-7-7-7-7-7-7-7-7-------
-8--8--8--8--8--8--8--8-7-7-7-7-7-7-7-7-3-3-3-3-3-3-3-3-5-5-5-5-5-5-5-5-------
-8--8--8--8--8--8--8--8-7-7-7-7-7-7-7-7-3-3-3-3-3-3-3-3-5-5-5-5-5-5-5-5-------
-8--8--8--8--8--8--8--8-7-7-7-7-7-7-7-7-3-3-3-3-3-3-3-3-5-5-5-5-5-5-5-5-------
Last Chorus w/ Variation

------------------------------------------------------------------------------
------------------------------------------------------------------------------
-10-10-10-10-10-10-10-10-12-12-12-12-12-12-12-12-9-9-9-9-9-9-9-9-9-9-9-9-9-9--
-8--8--8--8--8--8--8--8--10-10-10-10-10-10-10-10-7-7-7-7-7-7-7-7-7-7-7-7-7-7--
-8--8--8--8--8--8--8--8--10-10-10-10-10-10-10-10-7-7-7-7-7-7-7-7-7-7-7-7-7-7--
-8--8--8--8--8--8--8--8--10-10-10-10-10-10-10-10-7-7-7-7-7-7-7-7-7-7-7-7-7-7--


------------------------------------------------------------------------------
------------------------------------------------------------------------------
-9-9-10-10-10-10-10-10-10-10-12-12-12-12-12-12-12-12--------------------------
-7-7-8--8--8--8--8--8--8--8--10-10-10-10-10-10-10-10--0--0--10-10-10-10-------
-7-7-8--8--8--8--8--8--8--8--10-10-10-10-10-10-10-10--0--0--8--8--8--8--------
-7-7-8--8--8--8--8--8--8--8--10-10-10-10-10-10-10-10--0--0--8--8--8--8--------


------------------------------------------------------------------------------
------------------------------------------------------------------------------
-10-10-10-10-10-10-10-10-9-9-9-9-9-9-9-9-5-5-5-5-5-5-5-5-7-7-7-7-7-7-7-7-7-7--
-8--8--8--8--8--8--8--8--7-7-7-7-7-7-7-7-3-3-3-3-3-3-3-3-5-5-5-5-5-5-5-5-5-5--
-8--8--8--8--8--8--8--8--7-7-7-7-7-7-7-7-3-3-3-3-3-3-3-3-5-5-5-5-5-5-5-5-5-5--
-8--8--8--8--8--8--8--8--7-7-7-7-7-7-7-7-3-3-3-3-3-3-3-3-5-5-5-5-5-5-5-5-5-5--


-------------|-----------------------------------------|--------------------------
-------------|-----------------------------------------|--------------------------
-7-7-7-7-7-7-|------------------10-----------------10--|-----10-----10-10-10-10---
-5-5-5-5-5-5-|-0--0--15-0---0-0-x--0-0-12-0-10-0---x---|-0-0-x--0-0-x--x--x--x----
-5-5-5-5-5-5-|-0--0--15-0---0-0-8--0-0-12-0-10-0---8---|-0-0-8--0-0-8--8--8--8----
-5-5-5-5-5-5-|-0--0--15-0---0-0----0-0-12-0-10-0-------|-0-0----0-0---------------

Copyrights
Author: ?
Composer: ?
Publisher: ?
More details
Language: English

Reactions

CommonCrawl [Bot]

Follow Muzikum