Papa Roach
M-80 (Bass tab)

Band- Papa Roach
Song- M-80(explosive energy movement)
Album- LoveHate Tragedy
Tuning- DADG
Notes- This is a great song, one of my two personal favourites of the album (the first one beingn S.I.D). Fairly easy to play on bass. Even better if you know how to play it on guitar as the two parts are very similiar
Tabbed by- Deax
Intro:
G-----------------------------------------|
D-----------------------------------------|
A-----------------------------------------|
D-8-8----7-7----3-3----5-5----8-8----10-10|

Verse:
G----------------------|-------------------|----------------------|
D----------------------|-------------------|----------------------|
A-----------------8----|------------------8|-----------------8----|
D-0-0--12--0-10-0----10|-0-12-0-0-10-0-10--|-0-0--12--0-10-0----10|

Verse cont.
G----------------------|-------------------|
D----------------------|-------------------|
A----------------------|-----------8-------|
D-0-12-0-12-12-12-10-12|-0-12-0-12----10-12|

Chorus:
G-------------------------|
D-------------------------|
A-------------------------|
D-8-8----7-7----3-3----5-5|

''Break it'':
G----------------------|
D----------------------|
A----------------------|
D-0-3-0-5-7-5-3-5-3-5-3|

Variation of Chorus:
G---------------------------------------------------------------------------------|
D---------------------------------------------------------------------------------|
A---------------------------------------------------------------------------------|
D-8-8----7-7----3-3----5-5----8-8----10-10----7-7----7-7----8-8----10-10----0----0|

Variation of Chorus cont.
G------------------------------------------|
D------------------------------------------|
A------------------------------------------|
D----8-8----8-8----7-7----3-3----5-5----5-5|

Outro:
G------------------------------------|
D------------------------------------|
A----------------8----------------8--|
D-0-0--15-0--0-0----0-0-12-0-10-0----|

Finale:
G-------------------|
D-------------------|
A-----8------8-8-8-8|
D-0-0----0-0--------|

Well that's it, quality song as I said and I hope you enjoy it!

Copyrights
Author: ?
Composer: ?
Publisher: ?
More details
Language: English

Reactions

CommonCrawl [Bot]

Follow Muzikum