Biohazard

Biohazard
Punishment (Guitar tab)

#
From:


"Punishment" by BioHazard
from the CD "Urban Dicipline"

Transcribed by Aviad Hay.


It's a damn fine hardcore song - Like most of the
"Urban Dicipline" songs. Buy the album, It's worth
Every cent.

Tune the guitar 1 step down (E->D, A->G etc.)


A (Intro):

|----------------------------------------------|
|----------------------------------------------|
|----------------------------------------------|
|----------------------------------------------|
|--2--2--2--3---3--2-------2--2--2--3---3--2---|
|--0--0--0----1----0-------0--0--0----1----0---|

|----------------------------------------------|
|----------------------------------------------|
|----------------------------------------------|
|----------------------------------------------|
|--2--2--2--3---3--2--3--3--4--5--4--3---------|
|--0--0--0----1----0--1--1--2--3--2--1--1--13--|
\___/
Slide with a feeling


This Intro riff is repeated a few times.


B (Verse):


|-----------------------------------------------------------------------------|
|-----------------------------------------------------------------------------|
|-----------------------------------------------------------------------------|
|--9--9--9--10-10-10-8--8--8--9--9--9--10-10-10-10-9--9--9--10-9--9--9--9--9--|
|--7--7--7--8--8--8--6--6--6--7--7--7--8--8--8--8--7--7--7--8--7--7--7--7--7--|
|-----------------------------------------------------------------------------|

|--------------|
|--------------|
|--------------|
|--9--9--9--9--|
|--7--7--7--7--|
|--------------|

C (Chorus):

|------------------------------|
|------------------------------|
|------------------------------|
|------------------------------|
|--7-----8-----6-----7-----8---|
|--5-----6-----4-----5-----6---|


D (Verse #2):

|--------------------------------------------------------|
|--------------------------------------------------------|
|--------------------------------------------------------|
|--9--9---10--8---9---10---9--9---10--9-9-9-9-9-9-9-9-9--|
|--7--7---8---6---7---8----7--7---8---7-7-7-7-7-7-7-7-7--|
|--------------------------------------------------------|


E (Chorus #2):

|---------------------------------------------|
|---------------------------------------------|
|---------------------------------------------|
|---------------------------5----5------------|
|--7----6----3----2---------3----2----6----3--|
|--5----4----1----0-------------------4----1--|


|---------------------------------------------|
|---------------------------------------------|
|---------------------------------------------|
|---------------------------5----5------------|
|--7----6----3----2---------3----2----6----7--|
|--5----4----1----0-------------------4----5--|


F (Chorus #3):

|---------------------------------------------|
|---------------------------------------------|
|---------------------------------------------|
|---------------------------5----5------------|
|--7----6----3----2---------3----2----6----3--|
|--5----4----1----0-------------------4----1--|


|---------------------------------------------------|
|---------------------------------------------------|
|---------------------------------------------------|
|------------------------------5-----5--------------|
|--7-----6-----3-----2---------3-3-3-2-2-2-6-----7--|
|--5-5-5-4-4-4-1-1-1-0---------------------4-4-4-5--|

G (fill):

|-------------------------|
|-------------------------|
|-------------------------|
|-------------------------|
|--7----6----5----4----3--|
|--5----4----3----2----1--|


Structure of the song:

Ax4 {Intro}
Bx6 (1st time when Evan shouts, {End of Intro
2nd time alone, start of verse}
3rd when bass and drums comes in,
4th and 5th time when Evan and Billy sings)
Cx2 {Chorus #1}
Bx4 {Verse #1}
Cx3 {Chorus #1}
Gx1 {Fill}
Ax3 {Solo and special part}
Dx4 {Verse #2}
Ex2 {Chorus #2}
Dx4 {Verse #2}
Fx2 {Chorus #3}

OptimusPrime

Submitted by OptimusPrime at Mon 19 Nov, 2001 2:07 am

Author: ?
Composer: ?
Publisher: ?
Language: English

Reactions

CommonCrawl [Bot]

Follow Muzikum