Biohazard

Biohazard
Pride (Guitar tab)

From: "mosh baby"
Subject: b/biohazard/pride.tab
Date: Sun, 31 Jan 1999 13:39:39 PST

BIOHAZARD ~ Pride
(State of the world adress)


+++++++++++++++++++++++++++++++++++++++++++


- tune down 1/2 step
- PowerChords /5

++++++++++++++++++++



Intro/Verse: 3/4 time (wah)
E A# C# A#
e |------------------|
B |--9-------6-------|
G |--9-------6-------|
D |--9---8---6---8---|
A |--7---8---4---8---|
E |-(7)--6--(4)--6---|



"Denying, glorifying.....false your pride"
and 2nd verse: "Discontent with time...misrepresent"
A# D C# A G - A E G A G# E
G |------7---6--------|---------------|
D |--8---7---6---7-5--|--7---5-7-6-9--|
A |--8---5---4---7-5--|--7---5-7-6-9--|
E |--6---5---4---5-3--|--5-0-3-5-4-7--|



common time "(point of) view"
"I used to doubt....needed inside"
A# E G C# - A# E G F C#
G |-----9-----6--|----9--------6--|
D |--8--9--5--6--|-8--9--5--3--6--|
A |--8--7--5--4--|-8--7--5--3--4--|
E |--6--7--3--4--|-6--7--3--1--4--|




Chorus "my pride..."
A# E G C# - A# E - G F D# D C# B A#
G |-----9-----6--|----9-------8-7-6-4--2--|
D |--8--9--5--6--|-8--9---5-3-8-7-6-4--2--|
A |--8--7--5--4--|-8--7---5-3-6-5-4-2--1--|
E |--6--7--3--4--|-6--7---3-1-6-5-4-2--1--|





Bridge (moshpart)
A# - D# E D# - F F# F G#
G |-------8-9-8--|-10--11--10--13-|
D |--8----8-9-8--|-10--11--10--13-|
A |--8----6-7-6--|--8---9---8--11-|
E |--6----6-7-6--|--8---9---8--11-|


D# G# F# G# F#
G |--8--|--13-11---13-11--|
D |--8--|--13-11---13-11--|
A |--6--|--11--9---11--9--|
E |--6--|--11--9---11--9--|



Tabbed by jonah_dean@hotmail.com

OptimusPrime

Submitted by OptimusPrime at Mon 19 Nov, 2001 2:07 am

Author: ?
Composer: ?
Publisher: ?
Language: English

Reactions

CommonCrawl [Bot]

Follow Muzikum