Ben Folds Five

Ben Folds Five
Uncle Walter (Bass tab)

"Uncle Walter" Bass Tab
performed by Ben Folds Five
transcribed by Chris Moyer ( chris@chartersoftware.com )
------------------------------------------------------------------------

*Tune E-string to D#*

PART 1
G-----------------|-----------------|-----------------|-----------------
D-----5-3---------|-----3-1---------|-----5-----------|-----------------
A---------5-3-----|---------3-1-----|-----------------|-----------------
E-7-----------7-5-|-5-----------5-4-|-4-4-----2-2---0-|-0-2-3-4---5-6-7-
\__/ \__/ \__/

PART 2 - Play 2x
G-----------------|-----------------|-----------------|-----------------
D-----8-----------|-----6-----------|-----------------|-----------------
A-----------------|-----------------|-----------------|-----------------
E-7-7-----7-7---7-|-5-5-----5-5---5-|-4---4---2-2---0-|-0-2-3-4---5-6-7-
\__/

PART 3
G-----------------|-----------------|-----------------|-----------------
D-------------2-3-|-3-----------2-3-|-1---------------|-----------------
A-----------5---\__/----------6-----|-----1-3-1-----6-|-6---------6-7-8-
E-2---5-6-7-------|---5-6-7---------|-----------4-2-\__/--5-6-7-------\_

G-----------------|-----------------|-----------------|-----------------
D-----------------|-------------3-5-|-----------------|-----------------
A-8---------6-7-8-|-8---------6-----|-----------------|-----------------
E/----5-6-7-----\__/--5-5-6---------|-5---5---4-2-0-0-|-0-2-3-4---5-6-7-
\__/ \_
G---------r-------|-----------------|--------r--------|-----------------
D---------r-------|-----------------|--------r--------|-----------------
A---------r-------|-----------------|--------r--------|-----------------
E-7-------r-----0-|-0-2-3-4---5-6-7-|-7------r------0-|-0-2-3-4---5-6-7-
_/ \__/ \__/ \__/
G-----------------|-----------------|-----------------|-----------------
D-----------------|-----------------|-----------------|-----------------
A-----------------|-----------------|-----------------|-----------------
E-2---2---4-4---5-|-5-------5---5---|-7---------------|-7---------------
\__/ \________________/

PART 4
G-----------------|-----------------|-----------------|-----------------
D-----------------|-----------------|-----------------|-----------------
A-------8-8-------|-------8-8-----6-|-------6-6-------|-------6-6-------
E-7-------------7-|-7---------------|-4-------------4-|-4-------------4-

G-----------------|-----------------|-----------------|-----------------
D-----------------|-----------------|-----------------|-----------------
A-------5-5-------|-------5-5-------|-----------------|-----------------
E-3-------------3-|-3-------------3-|-2-2-2-2-2-2-2-2-|-5-5-5-5-5-5-5-5-

G-------------r---|-r-----------r---|-r-----------r---|-r---------------
D-------------r---|-r---8-------r---|-r---6-------r---|-r---------------
A-------------r---|-r-----------r---|-r-----------r---|-r---------------
E-5---5-------r---|-r-----------r---|-r-----------r---|-r---------------

G-r---------------
D-r---------------
A-r---------------
E-r---------------

Then repeat PART 3 1x

PART 5
G-----------------|-----------------|-----------------|-----------------
D-----8-----------|-----6-----------|-----------------|-----------------
A-----------------|-----------------|-----------------|-----------------
E-7-7-----7-7---7-|-5-5-----5-5---5-|-4---4---2-2---0-|-0---------------
\__/
G-r---------------|-r---------------|-12---12-11-10---8-|-r------8------
D-r---------------|-r---------------|-------------------|-r-8-10--------
A-r---------------|-r---------------|-------------------|-r-------------
E-r---------------|-r---------------|-------------------|-r-------------

OptimusPrime

Submitted by OptimusPrime at Thu 14 Aug, 2003 4:12 pm

Author: ?
Composer: ?
Publisher: ?
Language: English
Available on: Ben Folds Five (1995)

Reactions

CommonCrawl [Bot]

Follow Muzikum