Ben Folds Five

Ben Folds Five
One Angry Dwarf And 200 Solemn Faces Ver 2 (Bass tab)

One Angry Dwarf and 200 Solemn Faces - BEN FOLDS FIVE
Tabbed by: Bec (benfolds_five@hotmail.com)

I've only found one bass tab of this song floating round the net, and it's a pretty brief and incorrect one so... this is more accurate. There's a lot of fills I didn't tab, but they're just improvisations so just play around with this.


INTRO:
G|----------------------|
D|----------------------|
A|-22222222/5555/2222---|
E|----------------------|

VERSE:
G|-------------------------------------|
D|-------------------------------------|
A|-55/-55/---------77/-77/-------234---|
E|---------33/-33/----------77777------|

G|-------------------------------------|
D|-------------------------------------|
A|-55/-55/---------77/-77/--99999999---|
E|---------33/-33/---------------------|

CHORUS:
G|-----------------------------------------|
D|-------567-------345-5-------5-5-44-4----|
A|---567-----345-5-------55----------------|
E|-7------------------------33-------------| x2

Do the whole thing above for the 2nd time.

BREAK:

-INTRO
-VERSE

Then do this:
G|-----------------------------------------|
D|-------567-------345-5-------5-5-44-4----|
A|---567-----345-5-------55----------------|
E|-7------------------------33-------------|

G|---------7-4-------------------------------|
D|-------5-----7-5-----345-5-------5-5-44-4--|
A|---567-----------7-5-------55--------------|
E|-7----------------------------33-----------|

G|---------------------------|
D|---------------------------|
A|-2....../5....../2......-2-|
E|---------------------------| x2

"You'll be sorry one day.."
G|------------------------------------------------|
D|------------------------------------------------|
A|------------------------------------------------|(they're tens, not ones)
E|--77-45677-45677-45677-7891010-7891010-109877---|

Back to CHORUS:

G|-----------------------------------------|
D|-------567-------345-5-------5-5-44-4----|
A|---567-----345-5-------55----------------|
E|-7------------------------33-------------| x2

-INTRO x2

"Kiss my ass, kiss my ass goodbye now."
G|----4-------2h4---------4-------2h4-------------------|
D|--------2h4-----4-2---------2h4-----4-2---------------|
A|-22---2--------------22---2--------------/5555\2222---|
E|------------------------------------------------------| x2

G|----4-------2h4---------4-------2h4-----------------------------------|
D|--------2h4-----4-2---------2h4-----4-2-------------------------------|
A|-22---2--------------22---2--------------/555555555/7-7/9-9/12-12/14\-|
E|----------------------------------------------------------------------|

G|----4-------2h4---------4-------2h4----------------------|
D|--------2h4-----4-2---------2h4-----4-2------------------|
A|-22---2--------------22---2--------------/5555--2-2-1-0--|
E|---------------------------------------------------------|

End on A.

OptimusPrime

Submitted by OptimusPrime at Thu 14 Aug, 2003 4:12 pm

Author: ?
Composer: ?
Publisher: ?
Language: English

Reactions

CommonCrawl [Bot]

Follow Muzikum