Ben Folds Five

Ben Folds Five
Julianne Ver 3 (Bass tab)

"Julianne" by ben folds five
Tabbed By Tim Swan

There are few notes that I didn't tab out, but they just lead in to the
next part. Anyway I am sure you can figure anything out that I didn't.


First Verse
G-----------------------------------------------------------------
D-----------------------------------------------------------------
A-----------------5-5-5-5-5-5-5-5-----------------5-5-5-5-5-5-5-5-
E-5-5-5-5-5-5-5-5-----------------5-5-5-5-5-5-5-5-----------------

G-----------------------------------
D-----------------------------------
A-----------------7-7-7-7-5-5-5-5---
E-7-7-7-7-7-7-7-7-----------------3-

The Rest - Just play this over and over again.
There are few notes that I didn't tab out, but they just lead in to the
next part. Anyway I am sure you can figure anything out that
I didn't.

G-----------------------------------------------------------------
D-----------------------------------------------------------------
A-----------------5-5-5-5-5-5-5-5-----------------5-5-5-5-5-5-5-5-
E-5-5-5-5-5-5-5-5-----------------5-5-5-5-5-5-5-5-----------------

G------------------------------------------------------------------
D------------------------------------------------------------------
A-----------------7-7-7-7-5-5-5-5----------------------------------
E-7-7-7-7-7-7-7-7-----------------3-3-3-3-3-3-3-3-5-5-5-5-5-5-5-5--


Bridge - Play 2x and hold the last note
G-----------------------------
D-----------------------------
A-----------------------------
E-7-7-7--9-9--7-7-7--9-9--10--

OptimusPrime

Submitted by OptimusPrime at Thu 14 Aug, 2003 4:12 pm

Author: ?
Composer: ?
Publisher: ?
Language: English

Reactions

CommonCrawl [Bot]

Follow Muzikum