Ben Folds Five

Ben Folds Five
Julianne (Bass tab)

Julianne
by Ben Folds Five (off their self-titled debut)
tabbed by Rawot


The Verses, followed somewhat closely

G|-------------------------------------------------
D|-------------------------------------------------
A|-------------------------------------------------
E|--5-5-5-5-5-5-5-5-/-10-10-10-10-10-10-10-10------

X2

Then

G|-------------------------------------------------
D|-------------------------------------------------
A|-------------------------------------------------
E|-\-7-7-7-7-7-7-7-7-/-12-12-12-12-12-12-12-12-----

This is the basic first part of every verse
The last part before the repetition are as follows, in order

A: being awake never felt like this before
G|-------------------------------------------------
D|-------------------------------------------------
A|-------------------------------------------------
E|--3-x--------------------------------------------

B: being awake never felt so clear man..
G|-------------------------------------------------
D|-------------------------------------------------
A|-------------------------------------------------
E|--3-3-3-3-3-3-3-3-5-5-5-5-5-5-5-5----------------

C: (chorus same beginning as the verse, but this ending..)
but I don�t miss Julianne
G|-------------------------------------------------
D|-------------------------------------------------
A|-------------------------------------------------
E|--3--------5---------10--------------------------

Then new verse, with beginning part played twice,
Then I feel guilty for not giving her shit
(with ending A)

Chorus


I got a bag of trash

G|-------------------------------------------------
D|-------------------------------------------------
A|-------------------------------------------------
E|----5-5-5-5--12------5-5-5-5--12-----------------

The rest is pretty self explanatory

---------------------------------------------------------
Rawot
rabid_c@hotmailcom
please e-mail all comments, corrections, or suggestions
-----------------------------------------------------------

OptimusPrime

Submitted by OptimusPrime at Thu 14 Aug, 2003 4:12 pm

Author: ?
Composer: ?
Publisher: ?
Language: English

Reactions

CommonCrawl [Bot]

Follow Muzikum