Ben Folds Five

Ben Folds Five
Brick Ver 3 (Guitar tab)

Here's the REAL DEAL on Ben Folds Five's "Brick". All the other tabs
of this song couldnt be more wrong. -DeezNutts

Verse:

D G

--2-----2---0------0-----0-------0-----------------------------------------
------3---------3------3---3---3-----------------------------------------
----2-----2---2------0-------0------repeat-------------------------------------
--0-----0---0----------------------------------------------------------
---------------------------------------------------------------------
-------------------3-----3-----3---------------------------------------


Bridge before chorus:


--2-----2---0------0-----0-------0------------
------3---------3------3---3---3--------------
----2-----2---2------0-------0----------------
----------------------------------------------
--2-----2---2---------------------------------
-------------------3-----3-----3--------------


--2-----2---0------0-----0-------0------------
------3---------3------3---3---3--------------
----2-----2---2------0-------0----------------
----------------------------------------------
--2-----2---2---------------------------------
-------------------3-----3-----3--------------


--2-----2---0------0-----0-------0------------
------3---------3------3---3---3--------------
----2-----2---2------0-------0----------------
--0-----0---0---------------------------------
----------------------------------------------
-------------------3-----3-----3--------------


--2-----2---0---------0---------0--------------
------3---------3---3--------3-----3-----------
----2-----2---2---2-----1---------------------
----------------------------------------------
--2-----2---2---------------------------------
------------------2-----0---------------------

OptimusPrime

Submitted by OptimusPrime at Sun 01 Dec, 2002 8:42 am

Author: ?
Composer: ?
Publisher: ?
Language: English

Reactions

CommonCrawl [Bot]

Follow Muzikum