Ben Folds Five

Ben Folds Five
Rocking The Suburbs (Guitar tab)

Ben Folds Five
Rocking The Suburbs
Tabbed By: mjwk_1986@yahoo.com

Tuning: Standard

Intro (Chords)

e ---------------------------------------------
b ---------------------------------------------
g --5--7-----5---------------------------------
d --5--7--3--5---------------------------------
a --3--5--3--3---------------------------------
E --------1------------------------------------

Pre-Verse

e ---------------------------------------------
b ---------------------------------------------
g --7--10--------------------------------------
d --7--10--------------------------------------
a --5--8---------------------------------------
E ---------------------------------------------

e --------------------------13~----------------
b ---------------------------------------------
g ----12h14~-------15p14-----------------------
d --0-----------0--------0---------------------
a ---------------------------------------------
E ---------------------------------------------

Verse

"Let Me Tell You All.."

e ---------------------------------------------
b ---------------------------------------------
g ----------2----------------------------------
d --2---4----------2---4-----------------------
a --------------------------3------------------
E ---------------------------------------------

Chorus (Chords)

"I'm Rocking The Suburbs.."

e ---------------------------------------------
b ---------------------------------------------
g --7--10--5-----------------------------------
d --7--10--5-----------------------------------
a --5--8---3-----------------------------------
E ---------------------------------------------

Bridge

e ---------------------------------------------
b --13-----------------------------------------
g --15b----------------------------------------
d ---------------------------------------------
a ---------------------------------------------
E ---------------------------------------------

e -------------------------------------------------
b ----------------------------------------5--------
g -------------2-2-0-2-4-------------2-2-/5-5-5-4--
d --2---0-2-5--------------2---0-2-5---------------
a -------------------------------------------------
E -------------------------------------------------

Outro (Chords)

e ---------------------------------------------
b ---------------------------------------------
g --10--5--12----------------------------------
d --10--5--12----------------------------------
a --8---3--10----------------------------------
E ---------------------------------------------

OptimusPrime

Submitted by OptimusPrime at Wed 06 Feb, 2002 6:21 pm

Author: ?
Composer: ?
Publisher: ?
Language: English

Reactions

CommonCrawl [Bot]

Follow Muzikum